Guitaretab - guitar tabs
Song name
# A B C D E F G H I J K L M N O P Q R S T U V W X Y Z

Necros - I Hate My School tab

----------------------------------------------------------------------------
                          I Hate My School-Necros
----------------------------------------------------------------------------
Tabbed by: N.I. Romanov
Email: AltChaosProd@aol.com

Couldn't find tabs for this ANYWHERE so I hope they're right.


Intro

|----------------------------------------------------------------------|
|----------------------------------------------------------------------|
|----------------------------------------------------------------------|
|-9~~~~~~~~------------------------------------------------------------|
|-9~~~~~~~~------------------------------------------------------------|
|-7~~~~~~~~-scrape-----------------------------------------------------|

Verse
[ Tab from: http://www.guitaretab.com/n/necros/72100.html ]
|----------------------------------------------------------------------|
|----------------------------------------------------------------------|
|---------------5-5-5-7-7-7--------------------------------------------|
|-5-5-5-5-5-5-5-5-5-5-7-7-7--------------------------------------------|
|-5-5-5-5-5-5-5-7-7-7-5-5-5--------------------------------------------|
|-7-7-7-7-7-7-7--------------------------------------------------------|


Chorus

|----------------------------------------------------------------------|
|----------------------------------------------------------------------|
|----------------------------------------------------------------------|
|-----------------5-5-5-5-7-7-7-7--------------------------------------|
|-5-5-5-5-7-7-7-7-3-3-3-3-5-5-5-5--------------------------------------|
|-3-3-3-3-5-5-5-5------------------------------------------------------|

End



|----------------------------------------------------------------------|
|----------------------------------------------------------------------|
|----------------------------------------------------------------------|
|-5--------------------------------------------------------------------|
|-5-let ring-----------------------------------------------------------|
|-7--------------------------------------------------------------------|
Advertisement will be closed in 10 seconds