Guitaretab - guitar tabs
Song name
# A B C D E F G H I J K L M N O P Q R S T U V W X Y Z

Needtobreathe - Something Beautiful tab

Nobody had a decent tab for this song (especially in the correct tuning), so I tab out 
how I play it. It's pretty close to the studio version. Hope you enjoy!  -Kameron Kincade

Something Beautiful
NEEDTOBREATHE

Tuning: Open C#
C# G# C# G# C# C#

      C#    F#    G#   A#m     F#/F  D#m
C# ---0-----0-----0-----0-----0-----0----|
C# ---0-----0-----0-----0-----0-----0----|
G# ---0-----0-----0-----0-----0-----0----|
C# ---0-----0-----0-----0-----0-----0----|
G# ---0-----5-----7-----9-----5-----2----|
C# ---0-----5-----7-----9-----4-----2----|

Intro:

C# --------------------------------------------------------------------------|
C# -------0-------------0---------0----------0-------------0---------0-------|
G# -----0---0-----0---0---0-----0---0------0---0-----0---0---0-----0---0-----|
C# -----------0-------------0--------------------0-------------0-------------|
G# --------------------------------------------------------------------------|
C# ---0---------5---0---------0----------9---------5---0---------0-----------|


Verse:

In your ocean...
C# --------------------------------------------------------------------------|
C# -------0-------------0---------0----------0-------------0---------0-------|
G# -----0---0-----0---0---0-----0---0------0---0-----0---0---0-----0---0-----|
C# -----------0-------------0--------------------0-------------0-------------|
G# --------------------------------------------------------------------------|
C# ---9---------5---0---------0----------9---------5---0---------0-----------|
[ Tab from: http://www.guitaretab.com/n/needtobreathe/353073.html ]
                                                   ...and I can't figure out...
C# --------------------------------------0---0-------------------------------|
C# -------0-------------0---------0------0---0-------------------------------|
G# -----0---0-----0---0---0-----0---0----0---0-------------------------------|
C# ----------0-------------0-------------0---0-------------------------------|
G# --------------------------------------7---5-------------------------------|
C# ---9---------5---4---------4----------7---5-------------------------------|


Chorus:

C#   F#   G# (or D#m)   A

End chorus with -->  C#  F#  C# (hold last chord)

***Note: Sometimes the G is substituted with the D#m in this progression. Listen for the 
choruses where this happens.


Breakdown:
C# --0------0----0------0----0--------------------------------|
C# --0------0----0------0----0--------------------------------|
G# --0h10---9----0h12---10---7----4b5b4--0--------------------|
C# --0h9----7----0h10---9----5--------------------------------|
G# --0------0----0------0----0--------------------------------|
C# --0------0----0------0----0--------------------------------|

Lyrics

In your ocean, I'm ankle deep
I feel the waves crashing on my feet
It's like I know where I need to be
But I can't figure out, yeah I can't figure out

Just how much air I will need to breathe
When your tide rushes over me
There's only one way to figure out
Will you let me drown, will you let me drown

Hey now, this is my desire
Consume me like a fire, 'cause I just want something beautiful
To touch me, I know that I'm in reach
'Cause I am down on my knees, I'm waiting for something beautiful
Oh, something beautiful

And the water is rising quick
And for years I was scared of it
We can't be sure when it will subside
So I won't leave your side, no I can't leave your side

Hey now, this is my desire
Consume me like a fire, 'cause I just want something beautiful
To touch me, I know that I'm in reach
'Cause I am down on my knees, I'm waiting for something beautiful
Oh, something beautiful

In a daydream, I couldn't live like this
I wouldn't stop until I found something beautiful
When I wake up, I know I will have
No, I still won't have what I need

Hey now, this is my desire
Consume me like a fire, 'cause I just want something beautiful
To touch me, I know that I'm in reach
'Cause I am down on my knees, I'm waiting for something beautiful
Oh, something beautiful [fade out]
Related for Something Beautiful tab
Something Beautiful chords by Needtobreathe