Song name
# A B C D E F G H I J K L M N O P Q R S T U V W X Y Z

Negative Approach - Whatever I Do tab

NEGATIVE APPROACH
WHATEVER I DO

Intro
E|---------------|
B|---------------|
G|---------------|
D|-6~--------6~--|
A|-4~--------4~--|
E|---------------|

Main Verse
E|------------|
B|------------|
G|------------|
D|-66666-669--|
A|-4444464479-|
E|------4---7-|

Chorus
E|---------------|
B|---------------|
G|---------------|
D|-666-------666-|
A|-4446677444444-|
E|----4455222----|

Outro
E|-----------------|
B|-----------------|
G|-----------------|
D|-66666-669--7--6-|
A|-444446447975764-|
E|------4---75-54--|
Tap to rate this tab
 
# A B C D E F G H I J K L M N O P Q R S T U V W X Y Z