Negative Approach - Tied Down tab

e|---------------------------------------------------------------------------|
B|---------------------------------------------------------------------------|
G|---------------------------------------------------------------------------|
D|--4------------------------------------------------------------------------|
A|--2------------------------------------------------------------------------|
E|---------------------------------------------------------------------------|

  You got to demp this one, listen to the song how many times, then slide...

e|---------------------------------------------------------------------------|
B|---------------------------------------------------------------------------|
G|---------------------------------------------------------------------------|
D|--4-4-4-4-4-4-4-4-4-4--9-9-9-9--7-7-7-7------------------------------------|
A|--2-2-2-2-2-2-2-2-2-2--7-7-7-7--5-5-5-5---(4x)-----------------------------|
E|---------------------------------------------------------------------------|

e|---------------------------------------------------------------------------|
B|---------------------------------------------------------------------------|
G|---------------------------------------------------------------------------|
D|--11-11-11-11-11-11-11-11--9-9--7-7--4-4-4-4-4-4-4-4-----------------------|
A|---9--9--9--9--9--9--9--9--7-7--5-5--2-2-2-2-2-2-2-2--(3x)-----------------|
E|---------------------------------------------------------------------------|

e|---------------------------------------------------------------------------|
B|---------------------------------------------------------------------------|
G|---------------------------------------------------------------------------|
D|--11-11-11-11-11-11-11-11--9-9--7-7--9-9-9-9-9-9-9-9-----------------------|
A|---9--9--9--9--9--9--9--9--7-7--5-5--7-7-7-7-7-7-7-7--(1x)-----------------|
E|---------------------------------------------------------------------------|

 Everything comes back again in the song after this so you got all the chords
 you need!!

Tap to rate this tab
 
# A B C D E F G H I J K L M N O P Q R S T U V W X Y Z