Negative Approach - Pressure tab

e|---------------------------------------------------------------------------|
B|---------------------------------------------------------------------------|
G|---------------------------------------------------------------------------|
D|-----7-7-------9-9---------------------------------------------------------|
A|-----5-5--9-9--7-7--7-7---(2x)---------------------------------------------|
E|----------7-7-------5-5----------------------------------------------------|
  I can' take this PRESSURE... PRESSURE...PRESSURE...PRESSURE

e|---------------------------------------------------------------------------|
B|---------------------------------------------------------------------------|
G|---------------------------------------------------------------------------|
D|-----7-7-7-7-7-7-7-7-------------------9-9-9-9-9-9-9-9---------------------|
A|-----5-5-5-5-5-5-5-5--9-9-9-9-9-9-9-9--7-7-7-7-7-7-7-7--7-7-7-7-7-7-7-7----|
E|----------------------7-7-7-7-7-7-7-7-------------------5-5-5-5-5-5-5-5----|
  Too many things are to extreme...

e|---------------------------------------------------------------------------|
B|---------------------------------------------------------------------------|
G|---------------------------------------------------------------------------|
D|-----7-7-------9-9---------------------------------------------------------|
A|-----5-5--9-9--7-7--7-7--(2x)----------------------------------------------|
E|----------7-7-------5-5----------------------------------------------------|
  PRESSURE...PRESSURE...PRESSURE...PRESSURE

Tap to rate this tab
 
# A B C D E F G H I J K L M N O P Q R S T U V W X Y Z