Song name
# A B C D E F G H I J K L M N O P Q R S T U V W X Y Z

Negative Approach - Live Your Life tab

e|---------------------------------------------------------------------------|
B|---------------------------------------------------------------------------|
G|---------------------------------------------------------------------------|
D|---------------------------------------------------------------------------|
A|--7-7--10-10-10-10--5-5--2-2-2-2-------------------------------------------|
E|--5-5---8--8--8--8--3-3--0-0-0-0-------------------------------------------|

e|---------------------------------------------------------------------------|
B|---------------------------------------------------------------------------|
G|---------------------------------------------------------------------------|
D|--7-7-7-7--9-9-9-9--5-5-5-5--7-7-7-7--7-7-7-7--9-9-9-9--5-5-5-5-5-5-5-5----|
A|--5-5-5-5--7-7-7-7--3-3-3-3--5-5-5-5--5-5-5-5--7-7-7-7--3-3-3-3-3-3-3-3----|
E|---------------------------------------------------------------------------|

  Live you life for you, you got nothing but to lose...

Tap to rate this tab
 
# A B C D E F G H I J K L M N O P Q R S T U V W X Y Z