Song name
# A B C D E F G H I J K L M N O P Q R S T U V W X Y Z

Negative Fx - Feel Like A Man tab

This is my first tab(really simple) thought i would have a go, great hardcore/punk song.


Intro
E-----------------------------------------|
B-----------------------------------------|
G-----------------------------------------|
D--9-9-7-7-5-5-4-4-4-4-5-5-5-5-7-7-7-7----| x4
A--9-9-7-7-5-5-4-4-4-4-5-5-5-5-7-7-7-7----|
E--7-7-5-5-3-3-2-2-2-2-3-3-3-3-5-5-5-5----|

Main Riff
E-----------------------------------------|
B-----------------------------------------|
G-----------------------------------------|
D--9-9-7-7-5-5-4-4-4-4-5-5-5-5-7-7-7-7----|x4
A--9-9-7-7-5-5-4-4-4-4-5-5-5-5-7-7-7-7----|
E--7-7-5-5-3-3-2-2-2-2-3-3-3-3-5-5-5-5----|

Chorus
E---------------------------------------------------------------------|
B---------------------------------------------------------------------|
G---------------------------------------------------------------------|X2
D---------------------------------------------------------------------|
A-10-10-10-10-8-8-8-8-7-7-7-7-5-5-5-5-3-3-3-3-5-5-5-5-7-7-7-7-5-5-5-5-|
E-8--8--8--8--6-6-6-6-5-5-5-5-3-3-3-3-1-1-1-1-3-3-3-3-5-5-5-5-7-7-7-7-|

Main Riff
E-----------------------------------------|
B-----------------------------------------|
G-----------------------------------------|
D--9-9-7-7-5-5-4-4-4-4-5-5-5-5-7-7-7-7----|x6
A--9-9-7-7-5-5-4-4-4-4-5-5-5-5-7-7-7-7----|
E--7-7-5-5-3-3-2-2-2-2-3-3-3-3-5-5-5-5----|

Chorus
E---------------------------------------------------------------------|
B---------------------------------------------------------------------|
G---------------------------------------------------------------------|X4*
D---------------------------------------------------------------------|
A-10-10-10-10-8-8-8-8-7-7-7-7-5-5-5-5-3-3-3-3-5-5-5-5-7-7-7-7-5-5-5-5-|
E-8--8--8--8--6-6-6-6-5-5-5-5-3-3-3-3-1-1-1-1-3-3-3-3-5-5-5-5-7-7-7-7-|
*4 Bars 5th faded in the song.http (://en.wikipedia.org/wiki/Negative_FX They  were a 
signed band)
Tap to rate this tab
# A B C D E F G H I J K L M N O P Q R S T U V W X Y Z