Song name
# A B C D E F G H I J K L M N O P Q R S T U V W X Y Z

Negative - Still Alive tab

-------------------------------------------------------------------------------
     STILL ALIVE - Jonathan Coulton
-------------------------------------------------------------------------------

The little tune from the portal song--fun and very easy to play :)

(for the people who don't want to play all the chords and whatnot)

my first tab!

Tabbed by: c0mpanion cub3
Email: sergeant_steve_117@yahoo.com

Tuning: Standard

e|-3-2-0-0-2-3-2-0-0-2---0-----0-2-3-0-----0-----2-3-2-0-0-2---3-2-0-0-2---0-|
B|---------------------3---------------2-3-------------------------------3---|
G|-------------------------2-2---------------2-2-------------2---------------|
D|---------------------------------------------------------------------------|
A|---------------------------------------------------------------------------|
E|---------------------------------------------------------------------------|

e|-----0-2-3-0-----0-----0-1-0-----------1-1-0-------------------1-3-1-0-----|
B|-------------2-3-----3-------3-1-----1-------3-1-3-1-1-1-----1---------3-3-|
G|-2-2---------------2-------------2-3---------------------2-3---------------|
D|---------------------------------------------------------------------------|
A|---------------------------------------------------------------------------|
E|---------------------------------------------------------------------------|

e|-0-1-1-3-5-6-6-5-3-3-1-3-5-5-3-1-1-------1-1-0-0-2-2-----------------------|
B|-----------------------------------3-1-3-----------------------------------|
G|---------------------------------------------------------------------------|
D|---------------------------------------------------------------------------|
A|---------------------------------------------------------------------------|
E|---------------------------------------------------------------------------|
Tap to rate this tab
 
# A B C D E F G H I J K L M N O P Q R S T U V W X Y Z