Negative - Still Alive tab

Still Alive by Negative
It's just a solo tab
It took me like one hour
I think it's complete i'm not sure is it perfect
Don't copy it, because i wrote this tab
IF U WANT TO ASK ME ANY QUESTION - loveisasuicide@gmail.com
Tabbed by 'fAKEx'

IT'S ON HALF STEP DOWN!!

|-----------------------------|
|-----------------------------|
|---------------------7-9~----|
|--------------7-9-10---------|
|-------7-8-10----------------|
|-5-7-8-----------------------|



|----------------------------------------------------------------------------------|
|----------------------------------------------------------------------------------|
|-/7h9-5--5-4-5-4-----------------------------------7h9-12-------------------------|
|-----------------7-5-7-7/9--10-9----------10-9-10--------10--12-10-9-10-9---------|
|---------------------------------10-10/12---------------------------------10------|
|----------------------------------------------------------------------------------|



|---------------------------------12------------------10---------------------------------|
|-13--13--12-10--10-10-8-8-10--13---13-12-10--10-10-8---8-8------------------------------|
|-----------------------------------------------------------10-10-9-9-7--7v-7-5---5------|
|-------------------------------------------------------------------------------7--------|
|----------------------------------------------------------------------------------------|
|----------------------------------------------------------------------------------------|


|-------------------------|
|-10/12-12/13/15/17~------|
|-------------------------|
|-------------------------|
|-------------------------|
|-------------------------|



|-19-19-20--20-19-17--17-17-15-15-17--20-20-19-15-17-------------------------------------------|
|---------------------------------------------------------------------------------8------------|
|-----------------------------------------------------14-17-14~-12-10--9-10-9-7-9---9-9~~~7~~~-|
|----------------------------------------------------------------------------------------------|
|----------------------------------------------------------------------------------------------|
|----------------------------------------------------------------------------------------------|
Tap to rate this tab
 
# A B C D E F G H I J K L M N O P Q R S T U V W X Y Z