Song name
# A B C D E F G H I J K L M N O P Q R S T U V W X Y Z

Negative - In My Heaven tab

Tabbed by: JSchuess
Artist: Negative
Song: In My Heaven

In no way do I take all of the credit for figuring out this song.
I did figure out parts of it, but most of the credit goes to my friend
Sam. I simply tabbed it out. I hope you like it, as it is my first
submitted tab. Question/comments/hate mail (preferably related to the tab)
go to joeschuessler@comcast.net

main riff
e|----------------------------------------------------------------------|
B|----------------------------------------------------------------------|
G|------------------------------------------------------8-8-6-----------|
D|----8-11-10-11-10-----8-11-10-11-10-----6-10-8-10-8---------10-8-6----|
A|--8-----------------8-----------------6-------------------------------|
E|----------------------------------------------------------------------|

pre verse 1
e|--13~~11~---------|
B|--------11/13~~~--|
G|------------------|
D|------------------|
A|------------------|
E|------------------|

verse
e|----------------------------------------------------------------------|
B|---------------------------------------------------11-11--------------|
G|-----10-13-12-13------10-13-12-13------10-13-12-13---------13-12-10-8-|
D|--10---------------10---------------10--------------------------------|
A|----------------------------------------------------------------------|
E|----------------------------------------------------------------------|

pre verse 2
e|-----------------------------------------------------------------------|
B|-----------------------------------------------------------------------|
G|-----------------------------------------------------------------------|
D|-----------103~~-------------------------------------------------------|
A|---8~~-6~~-------------------------------------------------------------|
E|-----------------------------------------------------------------------|

bridge
e|----------------------------------------------------------------------|
B|----------------------------------------------------------------------|
G|------10-13-12-------10-13-12-------10-13-12-------10-13-12-----------|
D|--10-------------10-------------10-------------10---------------------|
A|----------------------------------------------------------------------|
E|----------------------------------------------------------------------|

outro part 1
e|----------------------------------------------------------------------|
B|----------------------------------------------------------------------|
G|----8-10-8-10-8-----8-10-8-10-8---6-6-10-8-10-8---8-6-6---------------|
D|--8---------------8-------------------------------------10-10-8-------|
A|----------------------------------------------------------------------|
E|----------------------------------------------------------------------|

outro part 2
e|----------------------------------------------------------------------|
B|----------------------------------------------------------------------|
G|----8-10-8-10-8-----8-10-8-10-8---------------------------------------|
D|--8---------------8---------------8-----10-----8----------------------|
A|----------------------------------------------------------------------|
E|----------------------------------------------------------------------|

[main riff] x2

[pre verse 1]

[verse] x2

[main riff] x2

[verse] x2

[bridge] x1.5 (You'll hear it.)

[main riff] x4

[outro p1] x3

[outro p2]
Tap to rate this tab
# A B C D E F G H I J K L M N O P Q R S T U V W X Y Z