Song name
# A B C D E F G H I J K L M N O P Q R S T U V W X Y Z

Negator - Interludium tab

Help us improve GuitareTab! Take a short survey!
#----------------------------------PLEASE NOTE---------------------------------#
#This file is the author's own work and represents their interpretation of the #
#song. You may only use this file for private study, scholarship, or research. #
#------------------------------------------------------------------------------#

INTERLUDIUM
As recorded by Therion
(From the 1996 Album THELI)

Transcribed by rumitema@freemail.hu
	

Music by J. Mellberg

Gtr I (Db Gb B E Ab Db) - 'Guitar 1'
Gtr II (Db Gb B E Ab Db) - 'Guitar 2'
Gtr III (Db Gb B E Ab Db) - 'Vocals'

   Intro
    Q.=80
    E5
   6/4
    Gtr I
    E. S S S E. S S S E. E. S S S E S   E. S S S E. S S S E. E. S S S E S
||------------------------------------|-----------------------------------|
||o-----------------------------------|-----------------------------------|
||--4---------------------------------|-4---------------------------------|
||-----5-4------4-5-4-4-----4-5-4-4---|----5-4------4-5-4-4-----4-5-4-4---|
||o--------7-7-----------7----------7-|--------7-7-----------7----------7-|
||------------------------------------|-----------------------------------|
|
|   Gtr II
|   W.                                  W.
||------------------------------------|-----------------------------------|
||o-----------------------------------|-----------------------------------|
||------------------------------------|-----------------------------------|
||------------------------------------|-----------------------------------|
||o-2---------------------------------|-2---------------------------------|
||--0---------------------------------|-0---------------------------------|


  D5
  E. S S S E. S S S E. E. S S S E S   E. S S S E. S S S E. E. S S S E S
|-----------------------------------|-----------------------------------|
|-----------------------------------|-----------------------------------|
|-----------------------------------|-----------------------------------|
|-7--5-4------4-5-4-4-----4-5-4-4---|-7--5-4------4-5-4-4-----4-5-4-4---|
|--------5-5-----------5----------5-|--------5-5-----------5----------5-|
|-----------------------------------|-----------------------------------|
|
| W.                                  W.
|-----------------------------------|-----------------------------------|
|-----------------------------------|-----------------------------------|
|-----------------------------------|-----------------------------------|
|-7---------------------------------|-7---------------------------------|
|-5---------------------------------|-5---------------------------------|
|-----------------------------------|-----------------------------------|


  C5
  E. S S S E. S S S E. E. S S S E S   E. S S S E. S S S E. E. S S S E S
|-----------------------------------|-----------------------------------|
|-----------------------------------|-----------------------------------|
|-----------------------------------|-----------------------------------|
|-5--4-2------2-4-2-2-----2-4-2-2---|-5--4-2------2-4-2-2-----2-4-2-2---|
|--------3-3-----------3----------3-|--------3-3-----------3----------3-|
|-----------------------------------|-----------------------------------|
|
| W.                                  W.
|-----------------------------------|-----------------------------------|
|-----------------------------------|-----------------------------------|
|-----------------------------------|-----------------------------------|
|-5---------------------------------|-5---------------------------------|
|-3---------------------------------|-3---------------------------------|
|-----------------------------------|-----------------------------------|


  B5
  E. S S S E. S S S E. E. S S S E S   E. S S S E. S S S E. E. S S S E S
|-----------------------------------|------------------------------------||
|-----------------------------------|-----------------------------------o||
|-----------------------------------|------------------------------------||
|-4--2-0------0-2-0-0-----0-2-0-0---|-4--2-0------0-2-0-0-----0-2-0-0----||
|--------2-2-----------2----------2-|--------2-2-----------2----------2-o||
|-----------------------------------|------------------------------------||
|
| W.                                  W.
|-----------------------------------|------------------------------------||
|-----------------------------------|-----------------------------------o||
|-----------------------------------|------------------------------------||
|-4---------------------------------|-4----------------------------------||
|-2---------------------------------|-2---------------------------------o||
|-----------------------------------|------------------------------------||


    E5
   6/4
    Gtr I
     E. S S S   E.  S  S S  E. E.   S  S S  E  S
||-----------------------------------------------|
||o----------------------------------------------|
||---4-------------------------------------------|
||------5-4---------4--5-4--4-------4--5-4--4----|
||o---------7---7--------------7---------------7-|
||-----------------------------------------------|
|
|   Gtr II
|    W.
||-----------------------------------------------|
||o----------------------------------------------|
||-----------------------------------------------|
||-----------------------------------------------|
||o--2-------------------------------------------|
||---0-------------------------------------------|
|
|   Gtr III
|    Q.        +E.  E.      Q.     +E.      E.
||-----------------------------------------------|
||o----------------------------------------12----|
||-----------------12------12-----(12)-----------|
||--14--------(14)-------------------------------|
||o----------------------------------------------|
||-----------------------------------------------|


   E. S S S E. S S S E. E. S S S E S
|------------------------------------|
|------------------------------------|
|--4---------------------------------|
|-----5-4------4-5-4-4-----4-5-4-4---|
|---------7-7-----------7----------7-|
|------------------------------------|
|
|  W.
|------------------------------------|
|------------------------------------|
|------------------------------------|
|------------------------------------|
|--2---------------------------------|
|--0---------------------------------|
|
|  W.
|------------------------------------|
|-12---------------------------------|
|------------------------------------|
|------------------------------------|
|------------------------------------|
|------------------------------------|


  D5
   E. S S S   E.  S  S S  E. E.   S  S S  E  S
|----------------------------------------------|
|----------------------------------------------|
|----------------------------------------------|
|--7--5-4---------4--5-4--4-------4--5-4--4----|
|---------5---5--------------5---------------5-|
|----------------------------------------------|
|
|  W.
|----------------------------------------------|
|----------------------------------------------|
|----------------------------------------------|
|--7-------------------------------------------|
|--5-------------------------------------------|
|----------------------------------------------|
|
|  Q.        +E.  E.      Q.     +E.      E.
|----------------------------------------------|
|----------------------------------------10----|
|----------------11------11-----(11)-----------|
|-12--------(12)-------------------------------|
|----------------------------------------------|
|----------------------------------------------|


   E. S S S E. S S S E. E. S S S E S
|------------------------------------|
|------------------------------------|
|------------------------------------|
|--7--5-4------4-5-4-4-----4-5-4-4---|
|---------5-5-----------5----------5-|
|------------------------------------|
|
|  W.
|------------------------------------|
|------------------------------------|
|------------------------------------|
|--7---------------------------------|
|--5---------------------------------|
|------------------------------------|
|
|  W.
|------------------------------------|
|-10---------------------------------|
|------------------------------------|
|------------------------------------|
|------------------------------------|
|------------------------------------|


  C5
   E. S S S   E. S  S S E. E.  S  S S E  S   E. S S S E. S S S E. E. S S S E S
|------------------------------------------|-----------------------------------|
|------------------------------------------|-----------------------------------|
|------------------------------------------|-----------------------------------|
|--5--4-2--------2--4-2-2------2--4-2-2----|-5--4-2------2-4-2-2-----2-4-2-2---|
|---------3---3------------3-------------3-|--------3-3-----------3----------3-|
|------------------------------------------|-----------------------------------|
|
|  W.                                        W.
|------------------------------------------|-----------------------------------|
|------------------------------------------|-----------------------------------|
|------------------------------------------|-----------------------------------|
|--5---------------------------------------|-5---------------------------------|
|--3---------------------------------------|-3---------------------------------|
|------------------------------------------|-----------------------------------|
|
|  Q.        +E. E.     Q.    +E.     E.     W.
|------------------------------------------|-----------------------------------|
|-------------------------------------8----|-8---------------------------------|
|----------------9------9-----(9)----------|-----------------------------------|
|-10--------(10)---------------------------|-----------------------------------|
|------------------------------------------|-----------------------------------|
|------------------------------------------|-----------------------------------|


  B5
  E. S S S  E. S  S S E. E.  S  S S E  S
|----------------------------------------|
|----------------------------------------|
|----------------------------------------|
|-4--2-0-------0--2-0-0------0--2-0-0----|
|--------2--2------------2-------------2-|
|----------------------------------------|
|
| W.
|----------------------------------------|
|----------------------------------------|
|----------------------------------------|
|-4--------------------------------------|
|-2--------------------------------------|
|----------------------------------------|
|
| Q.       +E. E.     Q.    +E.     E.
|----------------------------------------|
|-----------------------------------7----|
|--------------7------7-----(7)----------|
|-9--------(9)---------------------------|
|----------------------------------------|
|----------------------------------------|


 1.
   E. S S S E. S S S E. E. S S S E S
|-------------------------------------||
|------------------------------------o||
|-------------------------------------||
|--4--2-0------0-2-0-0-----0-2-0-0----||
|---------2-2-----------2----------2-o||
|-------------------------------------||
|
|  W.
|-------------------------------------||
|------------------------------------o||
|-------------------------------------||
|--4----------------------------------||
|--2---------------------------------o||
|-------------------------------------||
|
| +W.
|-------------------------------------||
|-(7)--------------------------------o||
|-------------------------------------||
|-------------------------------------||
|------------------------------------o||
|-------------------------------------||


  2.
  B5                                       E5
   E. S S S  E. S  S S E. E. S  S S E  S   W.
|----------------------------------------|-------*|
|----------------------------------------|-------*|
|----------------------------------------|-------*|
|--4--2-0-------0--2-0-0-----0--2-0-0----|-2-----*|
|---------2--2------------2------------2-|-------*|
|----------------------------------------|-------*|
|
|  W.                                      W.
|----------------------------------------|-------*|
|----------------------------------------|-------*|
|----------------------------------------|-------*|
|--4-------------------------------------|-------*|
|--2-------------------------------------|-2-----*|
|----------------------------------------|-0-----*|
|
| +Q.       +E. E.     E. E. E.     E.     W.
|----------------------------------------|-------*|
|-(7)-------(7)-7------8--7---------7----|-------*|
|----------------------------9-----------|-9-----*|
|----------------------------------------|-------*|
|----------------------------------------|-------*|
|----------------------------------------|-------*|



Duration Legend
---------------
W - whole; H - half; Q - quarter; E - 8th; S - 16th; T - 32nd; X - 64th; a - acciaccatura
+ - note tied to previous; . - note dotted; .. - note double dotted
Uncapitalized letters represent notes that are staccato (1/2 duration)
Irregular groupings are notated above the duration line
Duration letters will always appear directly above the note/fret number it represents the
duration for.  Duration letters with no fret number below them represent rests.  Multi-
bar rests are notated in the form Wxn, where n is the number of bars to rest for.  Low
melody durations appear below the staff

Tablature Legend
----------------
 h   - hammer-on
 p   - pull-off
 b   - bend
 pb  - pre-bend
 r   - bend release (if no number after the r, then release immediately)
 /\  - slide into or out of (from/to "nowhere")
 s   - legato slide
 S   - shift slide
 - natural harmonic
[n]  - artificial harmonic
n(n) - tapped harmonic
 ~   - vibrato
 tr  - trill
 T   - tap
 TP  - trem. picking
 PM  - palm muting
\n/  - tremolo bar dip; n = amount to dip
 \n  - tremolo bar down
 n/  - tremolo bar up
/n\  - tremolo bar inverted dip
 =   - hold bend; also acts as connecting device for hammers/pulls
 <> - volume swell (louder/softer)
 x   - on rhythm slash represents muted slash
 o   - on rhythm slash represents single note slash

Misc Legend
-----------
 |  - bar
||  - double bar
||o - repeat start
o|| - repeat end
*|  - double bar (ending)
 :  - bar (freetime)
 $  - Segno
 &  - Coda
Tempo markers -  = BPM(8/16=s8/s16), where s8 = swing 8ths, s16 = swing 16ths

Related for Interludium tab