Negramaro - Un Passo Indietro tab

Io parlo un po Italiano, ma sono americano. Questo e il mio tab primo e spero che il tab 
giusto.

E-----------------------------------------------------------------------|
B--2------------------2----------------------5----------------2---------|
G--2-------------2-----------/4----2----------------2-------------------|
D-----------2---------------------------2----------------2--------------|
A--0---------------------------------------------------------------0----|
E-----------------------------------------------------------------------|


----------------------------------------------------2--------------|
-----------------------------2-------------------------------------|
------------------------2---------/4----2----------------2---------|
-----------------4-----------------------------4--------------4----|
-------0-----------------------------------------------------------|
--4---------2------------------------------------------------------|


------------------2------------------------------------------------------|
--/5----3----2----3-------------/5----3----------------------3-----------|
--/4---------2----4-------------/4---------2----1-/--2-------2-----------|
------------------4------------------------------------------x-----------|
------------------2------------------------------------------2-----------|
------------------2------------------------------------------------------|

--0------------------|
--0------------------|
--1------------------|
--2------------------|
--2------------------|
--0------------------|
Tap to rate this tab
 
# A B C D E F G H I J K L M N O P Q R S T U V W X Y Z