Song name
# A B C D E F G H I J K L M N O P Q R S T U V W X Y Z

Negramaro - Un Passo Indietro tab

Help us improve GuitareTab! Take a short survey!
NEGRAMARO
UN PASSO INDIETRO

Sorry I don’t really know how to write a tab, but I try…
Hope you’ll enjoy


Intro and verse
          A/Asus2
e ----------------------------------------------------|
B ------2--------0-2-0-------5-----2------------------|
G ------2----------------2--------2-----2\1-----------|
D -----------2----------------------------------------|
A ------0---------------------------------------------|
E ----------------------------------------------------|

F#m			                    Bm
-------------------------2--------------------------2------------------------|
-2--------0-2-0----------2----5-3-2----------3--------3--------------5-3-2---|
-2-----------------2-------------------------4-----------4-------------------|
--------4--------------------------------------------------------------------|
-4-------------------------------------------2------------------2------------|
-----------------------------------------------------------------------------|

      E
e --0----0-----------|
B --0----------------|
G -------------------|
D -------------------|
A -------------------|
E --0----------------|

Chorus
	     C#m		         F#m
e -----------4---------------------------2---------(3 times)-------|
B -----------3---------------------------2-------------------------|
G -----------6---------------------------2-------------------------|
D -----------6---------------------------4-------------------------|
A -----------4---------------------------4-------------------------|
E -----------x---------------------------2-------------------------|
              Bm                        E
--------------2-------------------------0-------------|
--------------3-------------------------0-------------|
--------------4-------------------------1-------------|
--------------4-------------------------2-------------|
--------------2-------------------------2-------------|
--------------x-------------------------0-------------|

Saluti, elias.
Related for Un Passo Indietro tab