Guitaretab - guitar tabs
Song name
# A B C D E F G H I J K L M N O P Q R S T U V W X Y Z

Negrita - Magnolia tab

=======
From: "SePh1r0Th" 
Date: Mon, 03 May 2004 16:01:06 GMT
--------

Magnolia (Negrita)

Intro
[ Tab from: http://www.guitaretab.com/n/negrita/135697.html ]
 |       |       |       |        |       |       |       |
|--------------------------------|--------------------------------|
|--2-----------------------------|--------------------------------|
|------3-------------------------|----------1-----1---------------|
|--4---------6-----3-------------|--4-------------------4---------|
|------------4-----4-------------|----------2-----2-----2---------|
|--------------------------------|--------------------------------|

 |       |       |       |        |       |       |       |
|--------------------------------|--------------------------------|
|--2-----------------------------|--------------------------------|
|------3-------------------------|--------------------------------|
|--4---------6-----3-------------|--4-------1---------------------|
|------------4-----4-------------|----------2---------------------|
|--------------------------------|--------------------------------|
Related for Magnolia tab
Advertisement will be closed in 10 seconds