Song name
# A B C D E F G H I J K L M N O P Q R S T U V W X Y Z

Neil Diamond - Sweet Caroline tab

Highlighted       Show chord diagrams
The other versions are mainly right, but I combined some aspects of them, do the 
intro a little diferently and play it in a diferent key.

Capo 2nd.

Intro
e|--------------------------------------|
B|--------------------------------------|
G|--------------------------------------|
D|-6-8-9---------6-8-9-8-6--9-8-6-------|
A|--------------------------------------|
E|--------------------------------------|

e|--------------------------------------|
B|--------------------------------------|
G|-5-7-8---------5-7-8-7-5--8-7-5-------|
D|--------------------------------------|
A|--------------------------------------|
E|--------------------------------------|

e|---------------------------------------------------0---0----|
B|---------------------------------------------------0---0----|
G|-9-11-12------9-11-12-11-9--12-11-9---7---5---3----3---3----|
D|-------------------------------------------------------0----|
A|------------------------------------------------------------|
E|------------------------------------------------------------|

G

G
Where it began
C
I can't begin to knowin'
G                            D
But then I know it's growin' strong

G
Was in the spring
C
And spring became the summer
G                              D
Who'd have believed you'd come along


G      C
Hands, touchin' hands
D
Reachin' out
C
Touchin' me
D                   C  D
Touchin' you


G
Sweet Caroline
C                          D             C  D
Good times never seemed so good
G
I've been inclined
C                     D
To believe they never would
C   Bm  Am
But now I


G
Look at the night
C
And it don't seem so lonely
G                       D
We fill it up with only two

G
And when I hurt
C
Hurtin' runs off my shoulders
G                            D
How can I hurt when I'm with you


G     C
Warm, touchin' warm
D
Reachin' out
C
Touchin' me
D               C D
Touchin' you


G
Sweet Caroline
C                          D             C  D
Good times never seemed so good
G
I've been inclined
C                     D
To believe they never would
C   Bm  Am
Oh, no, no

(Repeat Intro)

G
Sweet Caroline
C                          D             C  D
Good times never seemed so good
G
I've been inclined
C                     D       C  D
To believe they never would
G
Sweet Caroline
Tap to rate this tab
 
# A B C D E F G H I J K L M N O P Q R S T U V W X Y Z