Song name
# A B C D E F G H I J K L M N O P Q R S T U V W X Y Z

Neil Diamond - Song Sung Blue tab

Song Sung blue by Neil Diamond

tabbed by hopeforchris

Sing the words to yourself to get the timing



 Song sung blue everybody knows one.

e|----------------------------------|
B|----------------------------------|
G|-------0----------------------0---|
D|-2----------3--2---0-------o------|
A|----3------------------3----------|
E|----------------------------------|



 Song Sung blue ev'ry garden grows one.

e|----------------------------------|
B|----------------------------------|
G|---------0--------------------0---|
D|-0----------3--2--0--2------------|
a|-------------------------3--------|
E|------3---------------------------|




 Me and you are subject to the blues now and then

e|---------------------------------------------|
B|------1--------------1-----------------------|
G|-3-----------3-------------2----2----2----2--|
D|---2-----2-------2---------------------------|
A|------------------------3--------------------|
E|---------------------------------------------|



 But when you take the blues and make a song

e|--------------------------------------------|
B|--------------------------------------------|
G|-----------------------------------------0--|
D|----------------0----0----0----3----3-------|
A|----------2---2-----------------------------|
E|-3--3--3------------------------------------|



 You sing them out again___Sing them out again__

e|----------------------------------------------|
B|----------------------------------------------|
G|-----0----------------------------------------|
D|--------3--3--2--2---------2---2---2---0---0--|
A|----------------------------------------------|
E|--3-------------------------------------------|



 Song sung blue weepin like a wil-low

e|-----------------------------------|
B|-----------------------------------|
G|-------0-----------------------0---|
D|-2----------3----2----0-----0------|
A|----3--------------------3---------|
E|-----------------------------------|



  song sung blue  sleepin on my pillow.
 
e|-------------------------------------|
B|-------------------------------------|
G|--------0-------------------------0--|
D|-0----------3---2---0----2-----------|
A|-----------------------------3-------|
E|----3--------------------------------|


 Funny thing but you can sing
 
e|---------------------------|
B|--------1---------------1--|
G|--3------------3-----------|
D|-----2------2-----2--------|
A|---------------------------|
E|---------------------------|
 


 it with a cry in your voice

e|--------------------------|
B|-------0------------------|
G|-3--2-------2--2--2--2----|
D|--------------------------|
A|--------------------------|
E|--------------------------|



 and before you know it start to feelin good

e|---------------------------------------|
B|---------------------------------------|
G|-------------------------------0---0---|
D|--------0--0--0---3---3---3------------|
A|-----2---------------------------------|
E|-3-3-----------------------------------|



 you simply got no choice

e|---------------------------|
B|---------------------------|
G|------0--------------------|
D|---------3---3---2---2-----|
A|---------------------------|
E|--3------------------------|



I hope you like it, chris.
Tap to rate this tab
 
# A B C D E F G H I J K L M N O P Q R S T U V W X Y Z