Neil Diamond - Crunchy Granola Suite tab

Just the main riff that is repeated at various times through the song.

This may be in the wrong position but the notes are there.

Work out the rhythm yourself

e------------------------------------------------------------------------------|
B----------------------------------------------------------------------0-------|
G-------------------------2----2----2----2----2----0---------0-----------------|
D--------------------2--------------------------------------2------------------|
A----\\\\-0----4---------------------------------------------------------------|
E------------------------------------------------------------------------------|



e---------------------------------------------------------------------------|
B-----------------------------------------------------------------------#---|
G-------------------------2----2----2----2----2----0------------------------|
D--------------------2------------------------------------------------------|
A---------0----4--------------------------------------------------------#---|
E---------------------------------------------------------------------------|
Tap to rate this tab
 
# A B C D E F G H I J K L M N O P Q R S T U V W X Y Z