Song name
# A B C D E F G H I J K L M N O P Q R S T U V W X Y Z

Neil Diamond - Play Me tab

This is my first tab so I am sure I have missed something,
however it still sounds close, but please comment,
Enjoy!!!


(Standard Tuning)

[G]              [A]
You are the sun, I am the moon,
[G/B]              [A7]           [D]
You are the words, I am the tune, play me.

Solo:

E--------------------------------------------------------------------|
B--10--7h8p7--8/10--7h8p7--8/10--7h8p7--7h8p7--7h8/10--8p7h8p7-------|
G--------------------------------------------------------------7-----|
D--------------------------------------------------------------------|
A--------------------------------------------------------------------|
E--------------------------------------------------------------------|

E---------------------------|
B--8-7---8-7---8-7----------|
G------7-----7-----7--------|
D--------------------9-7----|
A------------------------9--|
E---------------------------|

E----------------------------------------------------------------------|
B---10--7h8p7--8/10--7h8p7--8/10--7h8p7--7h8p7--7h8/10--8p7h8p7--------|
G---------------------------------------------------------------7------|
D--7-------------------------------------------------------------------|
A----------------------------------------------------------------------|
E----------------------------------------------------------------------|

E---------| (x6)      E----------|
B--8-7----|           B--7h8p7---|
G------7--|           G--------7-|
D---------|           D----------|
A---------|           A----------|
E---------|           E----------|

[D]
And so........


h = hammer on
p = pull off
/ = slide


Tyler D
Tap to rate this tab
# A B C D E F G H I J K L M N O P Q R S T U V W X Y Z