Song name
# A B C D E F G H I J K L M N O P Q R S T U V W X Y Z

Neil Diamond - Forever In Blue Jeans tab

----------------------------------------------------------------------------
		   NEIL DIAMOND- Forever In Blue Jeans
----------------------------------------------------------------------------
Tabbed By:Ryanshopefan1
Email:Guitplayer14@hotmail.com

Tuning:Standard eBGDAE
I Don't Think It's 100% Correct But I Think It's Pretty Good.
Enjoy =D

e|--------------------5---------------------------------5------------------|
B|-0---2-------------------------------------------------------------------|
G|--------2-2----2---------2-4-2-4h6p4-2-4--/6-2---4-------2---------------|
D|---------------------------------------0-------0---0---------------------|
A|-0-0----0-0--0---0-------0-0-0-0-----0-----------------------------------|
E|-------------------------------------------------------------------------|

e|-------------------------------------------------------------------------|
B|------------------5--------------0---------------------------------------|
G|-2-4-2-4-/6-4-2-------4h6-4----2-----------------------------------------|
D|-0-0-0-0----------0-0-0------0-------------------------------------------|
A|------------------------------------0------------------------------------|
E|-------------------------------------------------------------------------|

e|-----------------------------------0-------------------------------------|
B|-/5---------------5----------------------------5----3----1----0----------|
G|-------4h6-4---2----4-2-----2----2-------2-------------------------------|
D|-------------------------------------------------------------------------|
A|--0-0------0-0------------0---0--------0---0-----0----0----0----0--------|
E|-------------------------------------------------------------------------|

| /  Slide Up
| \  Slide Down
| h  Hammer-On
| p  Pull-Off
| ~  Vibrato
| *  Harmonic
| x  Mute Note
============================================================================
Tap to rate this tab
 
# A B C D E F G H I J K L M N O P Q R S T U V W X Y Z