Song name
# A B C D E F G H I J K L M N O P Q R S T U V W X Y Z

Neil Finn - Truth tab

Staple (2002)
Truth
Tabbed by U B the band
Tuning D Flat

Legend
/-slide up
\-slide down

This is a rare album to hear, to hear it go to:

http://www.struzzin.com/am/artists/staple/index.html

I'm also working on "Good Grief"

Intro:
Eb|-----------------------------------|
Bb|-----------------------------------|
Gb|--------------------------0--------|
Db|------3---2---0-------3-----3------|
Ab|----0---0---0---0---1---1-----1----|
Db|--0---------------1-------------1--|

Eb|-------------------------------|
Bb|-------------------------------|
Gb|-------------------------------|
Db|------3---2---0-------3---3----|
Ab|----0---0---0---0---1---1------|
Db|--0---------------1------------|

Verse 1: *play 3 times*
Eb|-----------------------------------|
Bb|-----------------------------------|
Gb|-----------------------------------|
Db|------3---2---0-------5-------3----|
Ab|----0---0---0---0---3---3---1---1--|
Db|--0---------------3-------1--------|

*play once*
Eb|-----------------------------------|
Bb|-----------------------------------|
Gb|-----------------------------------|
Db|------3---2---0-----5-------3------|
Ab|----0---0---0-----3---3---1---1----|
Db|--0-------------3-------1----------|

Chorus: *play 4 times*
Eb|-----------------------------------|
Bb|-----------------------------------|
Gb|--------------------------0--------|
Db|------3---2---0-------3-----3------|
Ab|----0---0---0---0---1---1-----1----|
Db|--0---------------1-------------1--|

After Chorus:
Eb|--------------------------------------|
Bb|--------------------------------------|
Gb|--------------------------------------|
Db|-------5---3-------------3---1--------|
Ab|-----3---3---3---3-----1---1---1---1--|
Db|--/3-----------3----\1-----------1----|

Eb|--------------------------------------|
Bb|--------------------------------------|
Gb|--------------------------------------|
Db|-------5---3-------------3---1--------|
Ab|-----3---3---3---3-----1---1----------|
Db|---3-----------3-----1----------------|

Verse 2: *play 3 times*
Eb|------------------------------------|
Bb|------------------------------------|
Gb|------------------------------------|
Db|------3---2---0--------5-------3----|
Ab|----0---0---0---0----3---3---1---1--|
Db|--0----------------3-------1--------|

*play once*
Eb|------------------------------------|
Bb|------------------------------------|
Gb|------------------------------------|
Db|------3---2---0------5-------3------|
Ab|----0---0---0------3---3---1--------|
Db|--0--------------3-------1----------|

Chorus: *play 8 times*
Eb|-----------------------------------|
Bb|-----------------------------------|
Gb|--------------------------0--------|
Db|------3---2---0-------3-----3------|
Ab|----0---0---0---0---1---1-----1----|
Db|--0---------------1-------------1--|

Bridge/Outro: *play 3 times*
Eb|-----------------------------------|
Bb|-----------------------------------|
Gb|----------3---------------2--------|
Db|------0-----0---0-----0-----0---0--|
Ab|----0---0-----0-----0---0-----0----|
Db|--0---------------0----------------|

*play once*
Eb|-----------------------------|
Bb|-----------------------------|
Gb|----------3---------------2--|
Db|------0-----0---0-----0---0--|
Ab|----0---0-----0-----0---0----|
Db|--0---------------0----------|

Finished!
Tap to rate this tab
 
# A B C D E F G H I J K L M N O P Q R S T U V W X Y Z