Song name
# A B C D E F G H I J K L M N O P Q R S T U V W X Y Z

Neil Hannon - Songs Of Love tab

This song,originally by the divine comedy was used in the comedy programme Father Ted. 
E|------------------------------------------------------------------|
B|------------------------------------------------------------------|
G|-5----------------------------------------------5--7--5-----5-----|
D|---7--5--7---5------5---------------------5--7-----------7--------|
A|----------------7------7--5---7-----------------------------------|
E|------------------------------------------------------------------|



E|------------------------------------------------------------------|
B|------------------------------------------------------------------|
G|------------------------------------------------------------------|
D|7-5--7--5-----5---------------------------------------------------|
A|----------7-------------------------------------------------------|
E|------------------------------------------------------------------|
Tap to rate this tab
 
# A B C D E F G H I J K L M N O P Q R S T U V W X Y Z