Song name
# A B C D E F G H I J K L M N O P Q R S T U V W X Y Z

Neil Patrick Harris - My Freeze Ray tab

My Freeze Ray

Dr Horrible's Sing Along Blog

Whedon et al

Tabbed by doctor gwaihir

Tuning: Standard tuning

This is how I like to play this on guitar, with neat little triads all along.
It seems to work well.
I usually play these with pim (thumb, index and middle fingers).
This gives the lowest note the little extra bit of weight from the thumb.
But whatever works for you.


Have fun!




e|----------------|----------------|----------------|----------------|
B|-8---8---8---8--|-8---8---8---8--|-8---8---8---8--|----------------|
G|-9---9---9---9--|-9---9---9---9--|-9---9---9---9--|-7---7---7---7--|
D|10--10--10--10--|-9---9---9---9--|-7---7---7---7--|-9---9---9---9--|
A|----------------|----------------|----------------|10--10--10--10--|
E|----------------|----------------|----------------|----------------| X2




e|----------------|----------------|----------------|----------------|
B|-8---8---8---8--|-8---8---8---8--|-8---8---8---8--|----------------|
G|-9---9---9---9--|-9---9---9---9--|-9---9---9---9--|-7---7---7---7--|
D|10--10--10--10--|-9---9---9---9--|-7---7---7---7--|-9---9---9---9--|
A|----------------|----------------|----------------|10--10--10--10--|
E|----------------|----------------|----------------|----------------|

         Laundry day      See you there   Under-things        Tumbling



e|----------------|----------------|----------------|----------------|
B|-8---8---8---8--|-8---8---8---8--|-8---8---8---8--|----------------|
G|-9---9---9---9--|-9---9---9---9--|-9---9---9---9--|-7---7---7---7--|
D|10--10--10--10--|-9---9---9---9--|-7---7---7---7--|-9---9---9---9--|
A|----------------|----------------|----------------|10--10--10--10--|
E|----------------|----------------|----------------|----------------|

          Wanna say       Love your hair    Here I go        Mumbling



e|----------------|----------------|----------------|----------------|
B|----------------|----------------|-8---8---8---8--|-8---8---8---8--|
G|-5-------5------|-5-------5------|-9---9---9---9--|-9---9---9---9--|
D|-7-------7------|-7-------7------|10--10--10--10--|-9---9---9---9--|
A|-8-------8------|-8-------8------|----------------|----------------|
E|----------------|----------------|----------------|----------------|

        With my freeze ray I will   stop         the world


e|----------------|----------------|----------------|----------------|
B|----------------|----------------|-6-------6------|-7-------7------|
G|-5-------5------|-5-------5------|-5-------5------|-7-------7------|
D|-7-------7------|-7-------7------|-6-------6------|-7-------7------|
A|-8-------8------|-8-------8------|----------------|----------------|
E|----------------|----------------|----------------|----------------|

       With my freeze ray I will    Find the time to Find the  words to


e|----------------|----------------|----------------|----------------|
B|-8---8---8---8--|-8---8---8---8--|-8---8---8---8--|----------------|
G|-9---9---9---9--|-9---9---9---9--|-9---9---9---9--|-7---7---7---7--|
D|10--10--10--10--|-9---9---9---9--|-7---7---7---7--|-9---9---9---9--|
A|----------------|----------------|----------------|10--10--10--10--|
E|----------------|----------------|----------------|----------------|

          Tell you how     How you make     Make me feel    What's the phrase


e|----------------|----------------|----------------|----------------|
B|-8---8---8---8--|-8---8---8---8--|-8---8---8---8--|----------------|
G|-9---9---9---9--|-9---9---9---9--|-9---9---9---9--|-7---7---7---7--|
D|10--10--10--10--|-9---9---9---9--|-7---7---7---7--|-9---9---9---9--|
A|----------------|----------------|----------------|10--10--10--10--|
E|----------------|----------------|----------------|----------------|

          Like a fool      Kinda sick      Special needs      Anyways


e|----------------|----------------|----------------|----------------|
B|----------------|----------------|-8---8---8---8--|-8---8---8---8--|
G|-5-------5------|-5-------5------|-9---9---9---9--|-9---9---9---9--|
D|-7-------7------|-7-------7------|10--10--10--10--|-9---9---9---9--|
A|-8-------8------|-8-------8------|----------------|----------------|
E|----------------|----------------|----------------|----------------|

       With my freeze ray I will    stop         the pain


e|----------------|----------------|----------------|----------------|
B|----------------|----------------|-6-------6------|-7-------7------|
G|-5-------5------|-5-------5------|-5-------5------|-7-------7------|
D|-7-------7------|-7-------7------|-6-------6------|-7-------7------|
A|-8-------8------|-8-------8------|----------------|----------------|
E|----------------|----------------|----------------|----------------|

        It's not a death ray or an ice beam that's all Johnny Snow  I


e|----------------|----------------|----------------|----------------|
B|-6-------6------|-7-------7------|12------12------|12------12------|
G|-5-------5------|-7-------7------|12------12------|12------12------|
D|-6-------6------|-7-------7------|12------12------|12------12------|
A|----------------|----------------|----------------|----------------|
E|----------------|----------------|----------------|----------------|

Just think you need time to know that I'm the guy to make it real  The


e|----------------|----------------|----------------|----------------|
B|10------10------|10------10------|10------10------|10------10------|
G|-9-------9------|-9-------9------|11------11------|11------11------|
D|11------11------|11------11------|12------12------|12------12------|
A|----------------|----------------|----------------|----------------|
E|----------------|----------------|----------------|----------------|

feelings you don't dare to feel   I'll bend the world to our will  and


e|----------------|----------------|----------------|----------------|
B|-8-------8------|-8-------8------|-3--------------|-4--------------|
G|-9-------9------|-9-------9------|-2--------------|-5--------------|
D|10------10------|10------10------|-4--------------|-5--------------|
A|----------------|----------------|----------------|----------------|
E|----------------|----------------|----------------|----------------|

  We'll make time     stand         still


e|----------------|----------------|----------------|----------------|
B|-8---8---8---8--|-8---8---8---8--|-8---8---8---8--|----------------|
G|-9---9---9---9--|-9---9---9---9--|-9---9---9---9--|-7---7---7---7--|
D|10--10--10--10--|-9---9---9---9--|-7---7---7---7--|-9---9---9---9--|
A|----------------|----------------|----------------|10--10--10--10--|
E|----------------|----------------|----------------|----------------|



e|----------------|----------------|----------------|----------------|
B|-8---8---8---8--|-8---8---8---8--|-8---8---8---8--|----------------|
G|-9---9---9---9--|-9---9---9---9--|-9---9---9---9--|-7---7---7---7--|
D|10--10--10--10--|-9---9---9---9--|-7---7---7---7--|-9---9---9---9--|
A|----------------|----------------|----------------|10--10--10--10--|
E|----------------|----------------|----------------|----------------|

        That's the plan    Rule the world    You and me       Any day


e|----------------|----------------|----------------|----------------|
B|-8---8---8---8--|-8---8---8---8--|-8---8---8---8--|----------------|
G|-9---9---9---9--|-9---9---9---9--|-9---9---9---9--|-7---7---7---7--|
D|10--10--10--10--|-9---9---9---9--|-7---7---7---7--|-9---9---9---9--|
A|----------------|----------------|----------------|10--10--10--10--|
E|----------------|----------------|----------------|----------------|

          Love your hair [What? No, I love the air]           Anyway


e|----------------|----------------|---|
B|----------------|----------------|-8-|
G|-5-------5------|-5-------5------|-9-|
D|-7-------7------|-7-------7------|10-|
A|-8-------8------|-8-------8------|---|
E|----------------|----------------|---|

         With my freeze ray I will  stop.
Tap to rate this tab
# A B C D E F G H I J K L M N O P Q R S T U V W X Y Z