Song name
# A B C D E F G H I J K L M N O P Q R S T U V W X Y Z

Neil Young - After The Goldrush tab

Listen to the song for the timing =]

In the actual song it's played on a horn or some sort of brass instrument.

There’s already a good tab up here but think it sounds better on different strings. So 
an alternative. Oh and its my first tab so please go easy on me.

I made a rookie error of putting the stringds the wrong way around the first time so 
altered it now.


e|-----------------------------------------------------------|
B|-----------------------------------------------------------|
G|------9-11-11-11-11-9-9-------------9-11-11-11-11-9--------|
D|12-12-------------------12-12--12-12-----------------12-12-|
A|-----------------------------------------------------------|
E|-----------------------------------------------------------|


e|-----------------------------------------------------------------|
B|-------------------------------------------------------10-12-10--|
G|-------9-11-11-11-12-11-11-9-9-9-9-11-9---------11-9-------------|
D|-12-12------------------------------------12-12------------------|
A|-----------------------------------------------------------------|
E|-----------------------------------------------------------------|

e|--------------------------------------------------------------------------|
B|--------------------------------------------------------------------------|
G|-11-11-11-9----9-------9-11----------9-------9-11-11-11-11-12-11-11-11-9--|
D|------------12---12-12------12-12-12---12-12------------------------------|
A|--------------------------------------------------------------------------|
E|--------------------------------------------------------------------------|

e|------------------------------------------------------------------------|
B|------------------------------------------------------------------------|
G|-9-9-9-11-9------------11-11-11-11-/12\-11-11-11-9-9-9-9-11-9-----------|
D|------------12-12-9-12---------------------------------------12-12-9-12-|
A|------------------------------------------------------------------------|
E|------------------------------------------------------------------------|

Enjoy...
Tap to rate this tab
# A B C D E F G H I J K L M N O P Q R S T U V W X Y Z