Song name
# A B C D E F G H I J K L M N O P Q R S T U V W X Y Z

Neil Young - Ohio tab

-------------------------------------------------------------------------------
                               OHIO - Neil Young
-------------------------------------------------------------------------------

Tabbed by:  Matthew Nesbitt
Email:  nesbitt.matt@gmail.com

Tuning:  Standard (EADGBe)

This is all three guitar solos for Ohio by Neil Young.  I am almost positive that this
100% correct, including the timing.  After the last guitar solo, the lead guitar plays a
more over the singing, but I don't have that tabbed out yet.  I will most likely add 
to this tab once I have it tabbed out though.

|
| /  slide up
| \  slide down
| h  hammer-on
| p  pull-off
| ~  vibrato
| .  Palm-mute note above
|

Intro Guitar Solo

 (0:10)                                            (0:12)
e|------------------------------------------------------------------|
B|------------------------------------------------------------------|
G|------------------------------------------------------------------|
D|---------------------------------------------------------3-/-5----|
A|-------------------------------------------------3-/-5------------|
E|------------------------------------------------------------------|

  (0:13)
e|------------------------------------------------------------------|
B|-----------------5-h-6---6-/-8---8---------------8-/-10--10-------|
G|---------5-/-7----------------------------------------------------|
D|-5-/-7------------------------------------------------------------|
A|------------------------------------------------------------------|
E|------------------------------------------------------------------|

  (0:16)
e|------------------------------------------------------------------|
B|-8-------6-------5------------------------------------------------|
G|---------------------7---5-h-7---7--------------------------------|
D|------------------------------------------------------------------|
A|------------------------------------------------------------------|
E|------------------------------------------------------------------|

  (0:19)
e|-----8-------8-------8-----------5--------------------------------|
B|-----.-----------------------8-------6---------------6---5--------|
G|---------------------------------------------7---------------7----|
D|------------------------------------------------------------------|
A|------------------------------------------------------------------|
E|------------------------------------------------------------------|

  (0:22)
e|------------------------------------------------------------------|
B|---------------------6-h-8---6------------------------------------|
G|-----5-h-7---5-h-7-------------------7----------------------------|
D|------------------------------------------------------------------|
A|------------------------------------------------------------------|
E|------------------------------------------------------------------|

Guitar Solo 1

  (1:02)
e|------------------------------------------------------------------|
B|-8-p-7--------8-p-7--------8-p-7-------------------8-------8------|
G|-7-------7----7-------7----7-------7-------7----------------------|
D|------------------------------------------------------------------|
A|------------------------------------------------------------------|
E|------------------------------------------------------------------|

  (1:05)
e|------------------------------------------------------------------|
B|-7-/-8---8-/-10--10------10------10------10------10-/15--15-------|
G|------------------------------------------------------------------|
D|------------------------------------------------------------------|
A|------------------------------------------------------------------|
E|------------------------------------------------------------------|

  (1:09)
e|------------------------------------------------------------------|
B|-15------15------13--12--13------12------10------10-h12--12-------|
G|------------------------------------------------------------------|
D|------------------------------------------------------------------|
A|------------------------------------------------------------------|
E|------------------------------------------------------------------|

  (1:12)
e|------------------------------------------------------------------|
B|-10------8-------8-------8-h-10--10------10-----/15--15--15-------|
G|------------------------------------------------------------------|
D|------------------------------------------------------------------|
A|------------------------------------------------------------------|
E|------------------------------------------------------------------|

  (1:15)
e|------------------------------------------------------------------|
B|-13------12------12------10------10------10-h12--10------10-------|
G|------------------------------------------------------------------|
D|------------------------------------------------------------------|
A|------------------------------------------------------------------|
E|------------------------------------------------------------------|

  (1:18)
e|------------------------------------------------------------------|
B|------------------------------------------------------------------|
G|-12--12--12------10------10-h12--10------9------------------------|
D|---------------------------------------------12--10-h12--12-------|
A|------------------------------------------------------------------|
E|------------------------------------------------------------------|

  (1:20)                                                   (1:23)
e|------------------------------------------------------------------|
B|------------------------------------------------------------------|
G|---------------------------------------------------------10-h12---|
D|------------------------------------------------------------------|
A|------------------------------------------------------------------|
E|------------------------------------------------------------------|

  (1:24)                                       (1:26)
e|---------------------------------------------10-------------------|
B|-------------------------------------------------13--12--12--10---|
G|------------------------------------------------------------------|
D|------------------------------------------------------------------|
A|------------------------------------------------------------------|
E|------------------------------------------------------------------|

Guitar Solo 2

  (1:56)           (1:57)
e|------------------------------------------------------------------|
B|-----------------7-------7-------8-p-7----------------------------|
G|-----------------.-----------------------7-------7-------7--------|
D|------------------------------------------------------------------|
A|------------------------------------------------------------------|
E|------------------------------------------------------------------|


e|------------------------------------------------------------------|
B|-8-p-7---8-p-7---8-------8-/-10--10------10------10------10-/15---|
G|------------------------------------------------------------------|
D|------------------------------------------------------------------|
A|------------------------------------------------------------------|
E|------------------------------------------------------------------|


e|------------------------------------------------------------------|
B|-15------15------13------13------12------12------10------10-------|
G|------------------------------------------------------------------|
D|------------------------------------------------------------------|
A|------------------------------------------------------------------|
E|------------------------------------------------------------------|


e|------------------------------------------------------------------|
B|--------------------------------------------------------/15--15---|
G|-12--10--12------10------10-h12--12--------------0----------------|
D|------------------------------------------------------------------|
A|------------------------------------------------------------------|
E|------------------------------------------------------------------|


e|------------------------------------------------------------------|
B|-15------15-h17--13------13------12------12------13------12-------|
G|-------------------------.---------------.------------------------|
D|------------------------------------------------------------------|
A|------------------------------------------------------------------|
E|------------------------------------------------------------------|


e|------------------------------------------------------------------|
B|-12------10--------------10---------------------------------------|
G|-.-------------------------------12--10--12------10------10-------|
D|------------------------------------------------------------------|
A|------------------------------------------------------------------|
E|------------------------------------------------------------------|


e|------------------------------------------------------------------|
B|------------------------------------------------------------------|
G|-9----------------------------------------------------------------|
D|------------------------------------------------------------------|
A|------------------------------------------------------------------|
E|------------------------------------------------------------------|


Well, there it is.  Hope it helped you.

===============================================================================
Tap to rate this tab
# A B C D E F G H I J K L M N O P Q R S T U V W X Y Z