Guitaretab - guitar tabs
Song name
# A B C D E F G H I J K L M N O P Q R S T U V W X Y Z

Neil Young - On The Beach tab

Neil Young - On the beach (middle solo)


this is my first tab
tabbed by Mayhembrown


someone needs to tabs this song its fantastic.
but someone good i.e not me.

ive done my best to tab the middle section of the song.
cus nobody has done it.


singing stops

solo beings

2m 32seconds
-------------------------------------------------------|
-------------------------------------------------------|
----7--7-------------6s7----5---5s7s9s12-14---14h12----|
----------7-----7-10----7------------------------------|
-------------------------------------------------------|
-------------------------------------------------------|

--------------------------------------------------------|
------------------------------------17--20--22--20--17--|
---14h12----12-14--14--16--17--19-----------------------|
--------14----------------------------------------------|
--------------------------------------------------------|
--------------------------------------------------------|


descending bit
[ Tab from: http://www.guitaretab.com/n/neil-young/129796.html ]
--------------------------------------------------------|
-----17----17-----17-17-16-16-15-15-13-13p10---------16-|
--21----21-------------------------------------16-18----|
--------------------------------------------------------|
--------------------------------------------------------|
--------------------------------------------------------|

--------------------------------------------------------|
--------16-14-----------12-12h13-12---12-13-12-10-------|
--16-18-------16-15b------------------------------------|
--------------------------------------------------------|
--------------------------------------------------------|
--------------------------------------------------------|

--------------------------------------------------------|
----------------------------------------------------11--|
-----9-9-9-8-7-------------------6-------------8s10-----|
-------------------10h7----7h9-----7h9--7---------------|
--------------------------------------------------------|
--------------------------------------------------------|

3m 36seconds

singing enters again
Related for On The Beach tab
Advertisement will be closed in 10 seconds