Song name
# A B C D E F G H I J K L M N O P Q R S T U V W X Y Z

Neil Young - Till The Morning Comes tab

Neil Young
After The Gold Rush
Till The Morning Comes
Key of C

Piano Tabs & Horn Tabs are down below

This tab should be almost 100% perfect

Chords:
 C   Am   Dm   G
-0- -0-  -1-  -3-|
-1- -1-  -3-  -0-|
-0- -2-  -2-  -0-|
-2- -2-  -0-  -0-|
-3- -0-  ---  -2-|
--- ---  ---  -3-|


C    Am    Dm    G    Dm    G

C                      Am
I'm gonna give ya till the morning comes
Dm               G
Till the morning comes
Dm               G
Till the morning comes
C                     Am
I'm only waiting till the morning comes
Dm               G
Till the morning comes
Dm               G
Till the morning comes

C    Am    Dm    G    Dm    G

C                      Am
I'm gonna give ya till the morning comes
Dm               G
Till the morning comes
Dm               G
Till the morning comes
C                     Am
I'm only waiting till the morning comes
Dm               G
Till the morning comes
Dm               G
Till the morning comes


PIANO(BASS):
  C       Am      Dm     G        Dm      G
E-------------------------------------------------|
B-------------------------------------------------|
G-------------------------------------------------|
D-5-5-5-5-5-7-7-5---------5-5-5-5---------5-5-5-5-|
A-----------------5-5-5-5---------5-5-5-5---------|
E-------------------------------------------------|

PIANO(LEAD):
  C           Am       Dm            G
E-----------------------------------------------------------|
B-8-8-8-8-8-5-8-8-10-10--10-10-10-13-12--13-13-13-13-12--10-|
G-----------------------------------------------------------|
D-----------------------------------------------------------|
A-----------------------------------------------------------|
E-----------------------------------------------------------|

 Dm           G
E------------------------------------|
B-10-10-10-13-12--13-13-13-13-12--10-|
G------------------------------------|
D------------------------------------|
A------------------------------------|
E------------------------------------|

HORN:
  C           Am       Dm            G  Dm           G
E-------------------------------------------------------|
B-8-8-8-8-8-5-8-8-10-10--10-10-10-13-12--10-10-10-13-12-|
G-------------------------------------------------------|
D-------------------------------------------------------|
A-------------------------------------------------------|
E-------------------------------------------------------|

Tabbed out by Joe Hinx
Tap to rate this tab
 
# A B C D E F G H I J K L M N O P Q R S T U V W X Y Z