Song name
# A B C D E F G H I J K L M N O P Q R S T U V W X Y Z

Neil Young - You And Me tab

-------------------------------------------------------------------------------
			   You and me(intro) - Neil young
-------------------------------------------------------------------------------

Tabbed by:Blast3rBOB

Email:ein_kraasleg_kar@hotmail.com

Tuning:DADGBe (Droped-D) 




e|----8-/-10--10------------------|---10-\-8---8---|---5-/--7---|------------|
B|----8-/-10--10--(Do some--------|---10-\-8---8---|---6-/--8---|---5-\-7----|
G|----9-/-11--11----careful-------|---11-\-9---9---|---5-/--7---|---5-\-7----|
D|----0--(0)----------strumming)--|---0---(0)------|---0---(0)--|---5-\-7----|
A|--------------------------------|----------------|------------|---0--(0)---|
D|--------------------------------|----------------|------------|------------|

(let the open D ring)---------------------------------------->   (A)------->

e|----0---------------------------|----------0-----|---2---------------------||
B|----6---(strumming...)----------|--------3---3---|---3--(and just----------||
G|----5---------------------------|------0-------0-|---2---- keep strumming)-||
D|----0---------------------------|----------------|---0---------------------||
A|----5---------------------------|--0h2-----------|-------------------------||
D|--------------------------------|----------------|-------------------------||
     (D)------------------------->   (B)--------->     (D)------------->


| /  slide up
| \  slide down
| h  hammer-on
| p  pull-off
| ~  vibrato
| +  harmonic
| x  Mute note
===============================================================================
Tap to rate this tab
 
# A B C D E F G H I J K L M N O P Q R S T U V W X Y Z