Song name
# A B C D E F G H I J K L M N O P Q R S T U V W X Y Z

Neil Young - Painter tab

|----3----------------|-------3----------------|    
|-------3-------------|----------3-------------|
|----------0----------|---0---------0----------|
|--0-----------0h2--|-0----------------0h2-----|
|---------------------|------------------------|
|-3------------------ |------------------------|


|----3----------------|-------3----------------|    
|-------3-------------|----------3-------------|
|----------0----------|---0---------0----------|
|--0-----------0h2--|-0----------------0h2-----|
|---------------------|------------------------|
|-3------------------ |------------------------|
Tap to rate this tab
# A B C D E F G H I J K L M N O P Q R S T U V W X Y Z