Song name
# A B C D E F G H I J K L M N O P Q R S T U V W X Y Z

Neil Young - Harvest Moon tab

 k, well this is my first transcription, no wait don't leave cause of that!
 all i was gonna say was go easy on me
   -Metalman11

    |----------------|
    | Legend         |
    | <>- harmonics  |
    |  p- pulloff    |
    ------------------

     e------7-7p0--9-9--9-9---------7-7p0--9-9--9-9---|
     B------7-7----7-7--7-7---------7-7----7-7--7-7---|
     G------7-7----7-7--7-7---------7-7----7-7--7-7---|
     D---0-----------------------0--------------------|
     A---0-----------------------0--------------------|
     E------------------------------------------------|

     |-------7-7p0--9-9--9-9---------7-7p0--9-9--9-9---|
     |-------7-7----7-7--7-7---------7-7----7-7--7-7---|
     |-------7-7----7-7--7-7---------7-7----7-7--7-7---|
     |----0-----------------------0--------------------|
     |----0-----------------------0--------------------|
     |-------------------------------------------------|

     Then while another guitar plays this:

Gr.1 |-------7-7p0--9-9--9-9---------7-7p0--9-9--9-9---|
     |-------7-7----7-7--7-7---------7-7----7-7--7-7---|
     |-------7-7----7-7--7-7---------7-7----7-7--7-7---|
     |----0-----------------------0--------------------|
     |----0-----------------------0--------------------|
     |-------------------------------------------------|

     Play this:

Gr.2 |------<12>-----------------------------------------|
     |-----------<12>------------------------------------|
     |----------------<12>-------------------------------|
     |--------------------<12>---------------------------|
     |-------------------------<7>-----------------------|
     |---------------------------------------------------|
Tap to rate this tab
 
# A B C D E F G H I J K L M N O P Q R S T U V W X Y Z