Song name
# A B C D E F G H I J K L M N O P Q R S T U V W X Y Z

Neil Young - Walk On tab

-----------------------------------------------------------------------------
       SONG NAME Walk ON - Band Name Neil Young
-----------------------------------------------------------------------------


Tuning:Standard

Listen for timing.  This is played throughout the song

e|-7-9-7----9-99-9--7-7------------------------------------------------------|
B|-7-7-7----9-99-9--7-7------------------------------------------------------|
G|-8-8-7----9-99-9--7-8------------------------------------------------------|
D|-9-9-7----7-77-7--7-9------------------------------------------------------|
A|---------------------------------------------------------------------------|
E|---------------------------------------------------------------------------|


| /  slide up
| \  slide down
| h  hammer-on
| p  pull-off
| ~  vibrato
| +  harmonic
| x  Mute note
===============================================================================
Tap to rate this tab
# A B C D E F G H I J K L M N O P Q R S T U V W X Y Z