Song name
# A B C D E F G H I J K L M N O P Q R S T U V W X Y Z

Neil Young - Rockin In The Free World tab

Rockin In The Free World
 -Neil Young

Electric version: Standard tuning(EADGBe)

Guitar 1: Neil Young, Intro/Main riff:
   Em                   D     C
e|-------------------------------------------|
B|---------------------7~-----5~-------------|
G|---------------------7~-----5~-------------|
D|--5-5-5-5-5-5-5-5----7~-----5~-------------|   x4
A|--7-7-7-7-7-7-7-7--------------------------|
E|--0-0-0-0-0-0-0-0--------------------------|
 P.M ----------------------------------------|


Guitar 1: Neil Young, Interlude:
      A       A        A     A
e |--000--0-0--0-0-0-0--0-0-0--|
B |--222--2-2--0-0-0h2--2-2-2--|
G |--222--2-2--0-0-0h2--2-2-2--|
D |--222--2-2--0-0-0h2--2-2-2--|    x2
A |--000--0-0--0-0-0-0--0-0-0--|
E |----------------------------|

Guitar 2: Pearl Jam, Intro/Main riff:

e|---------------------------------|
B|---------------------------------|
G|---------------------------------|
D|-7-7-7-7-7-7-7-7----5~-----3~----|   x4
A|-9-9-9-9-9-9-9-9----7~-----5~----|
E|---------------------------------|

Guitar 2: Pearl Jam, Interlude:
   A                A
e|-------------------|
B|-------------------|
G|-------------------|
D|-7---------------7-|
A|-7---------------7-|
E|-5---------------5-|

Guitar 2: Pearl Jam, Chorus:
  G    D   C   C C/B Em
e|---------------------|
B|---------------------|
G|-----7---5---5-0-----|
D|-5---7---5---5-0---2-|   x4
A|-5---5---3---3-0---2-|
E|-3-------------------|

Guitar 1: Neil Young, Solo:
e-12-12-12-12-12-12-12---^^^^^^^^^-------------------------------|
B-12-12-12-12-12-12----15--15-15-15-12-------^^^^^^^--12-------12|
G--------------------------------------15-12-12-12h14----14-14---|
D----------------------------------------------------------------|
A----------------------------------------------------------------|
E----------------------------------------------------------------|

e-----------^^^^^12-15b15b15^^^15b---12--------------------------|
B-12-------12----12---------------15-------------------14--------|
G----14b14-14-14------------------------14-14-12-^^^^^-14-12-----|
D------------------------------------------------14-14-----------|
A----------------------------------------------------------------|
E----------------------------------------------------------------|

e-------------------------------0---------------------12-12-12-12|
B-------------------------------0-15---------------15-15-15-15-15|
G12----------12--^^^^^------12b14b---14-12-14b-14b---------------|
D---14-12----12-14----14-14--------------------------------------|
A---------14-----------------------------------------------------|
E----------------------------------------------------------------|

e-12-12---------^^^^^-12----12-12b---15-15^^^^14 15--------------|
B-15-15-12-15-15---------15b---15b15----------------15-----------|
G-------------------------------0-------------------15-----------|
D----------------------------------------------------------------|
A----------------------------------------------------------------|
E----------------------------------------------------------------|

e-15-14-12^^^^12^^^15-14-12----12-14-12-15b----------------------|
B---------------------------15-----------------------------------|
G----------------------------------------------------------------|
D----------------------------------------------------------------|
A----------------------------------------------------------------|
E----------------------------------------------------------------|
Tap to rate this tab
# A B C D E F G H I J K L M N O P Q R S T U V W X Y Z