Song name
# A B C D E F G H I J K L M N O P Q R S T U V W X Y Z

Neil Young - Harvest Moon tab

-------------------------------------------------------------------------------
			     HARVEST MOON - Neil Young
-------------------------------------------------------------------------------
Tabbed by: stonegolem13

Tuning: Standard

The main bit of the intro is simply:
(NOTE:Play this bit with a few mutes 'coz it sounds better)
e|--5---7-7-7------9--9--9--9--9--9---|
B|--7---7-7-7------10-10-10-10-10-10--|
G|--7---7-7-7------11-11-11-11-11-11--|
D|------------------------------------|
A|------------------------------------|
E|------------------------------------|
              

And the harmonized bit is:

e|--12---------------|
B|------12-----------|
G|----------12-------|
D|-------------12-14-|
A|-------------------|
E|-------------------|

And the alternative bit to the start:

e|--2---2-2-2--2------------------|
B|--3---3-3-3--3---2--------------|
G|--2---2-2-2--2---2--------------|
D|-----------------2---2---4-4-4--|
A|---------------------2---5-5-5--|
E|--------------------------------|

And that's the gist of it :)
Tap to rate this tab
# A B C D E F G H I J K L M N O P Q R S T U V W X Y Z