Neil Young - The Needle And The Damage Done tab

Intro:
D 
e|----2----0-------------|-----------0-------------|-----------0------------|
b|----3----3-----3-----3-|-----3-----3-----3-----3-|-----3-----3-----3----3-|
g|------------------2----|--------0-----------0----|--------0-----------0---|
D|-0----0-----0----------|-------------------------|------------------------|
A|-----------------------|--3-----------3----------|--2----------2----------|
E|-----------------------|-------------------------|------------------------|

 D                          C                        F
e|----------0-------------|----0-----0-----0-----0-|----0-----0-----0-----0-|
b|----3-----3-----3-----3-|----1-----1-----1-----1-|----1-----1-----1-----1-|
g|-------0-----------0----|-------------0----0h2---|-3-----2-----0----------|
D|------------------------|------0h2---------------|-------------------3----|
A|-1-----------1----------|-3----------------------|------------------------|
E|------------------------|------------------------|------------------------|

 E
e|----0-----0-----0-----0-|----0-----0-----0-----0--|
b|----0-----0-----0-----0-|----0-----0-----0-----0--|
g|-2----------------------|-1-----------------------|
D|-------2----------------|-------2-----------------|
A|-------------2-----2----|-------------2-----0-----|
E|------------------------|-------------------------|


Verses:
D 
e|----2----0-------------|-----------0-------------|-----------0------------|
b|----3----3-----3-----3-|-----3-----3-----3-----3-|-----3-----3-----3----3-|
g|------------------2----|--------0-----------0----|--------0-----------0---|
D|-0----0-----0----------|-------------------------|------------------------|
A|-----------------------|--3-----------3----------|--2----------2----------|
E|-----------------------|-------------------------|------------------------|

 D                          C                        F
e|----------0-------------|----0-----0-----0-----0-|----0-----0-----0-----0-|
b|----3-----3-----3-----3-|----1-----1-----1-----1-|----1-----1-----1-----1-|
g|-------0-----------0----|------------------------|------------------------|
D|------------------------|------------------------|-3-----3-----3-----3----|
A|-1-----------1----------|-3-----3-----3-----3----|------------------------|
E|------------------------|------------------------|------------------------|

 E
e|----0-----0-----0-----0-|----0-----0-----0-----0--|
b|----0-----0-----0-----0-|----0-----0-----0-----0--|
g|-2----------------------|-1-----------------------|
D|-------2----------------|------------2/4----2-----|
A|-------------2-----2----|------0h2----------------|
E|------------------------|-------------------------|


I caught you knockin'
at my cellar door
I love you, baby,
can I have some more
Ooh, ooh, the damage done.

I hit the city and
I lost my band
I watched the needle
take another man
Gone, gone, the damage done.

[Intro]

I sing the song
because I love the man
I know that some
of you don't understand
Milk-blood
to keep from running out.

I've seen the needle
and the damage done
A little part of it in everyone
But every junkie's
like a settin' sun.

Outro:
D 
e|----2----0-------------|-----------0-------------|-----------0------------|
b|----3----3-----3-----3-|-----3-----3-----3-----3-|-----3-----3-----3----3-|
g|------------------2----|--------0-----------0----|--------0-----------0---|
D|-0----0-----0----------|-------------------------|------------------------|
A|-----------------------|--3-----------3----------|--2----------2----------|
E|-----------------------|-------------------------|------------------------|

D                          
e|-----0-----0---|
b|-----3-----3---|
g|-----0-----0---|
D|---------------|
A|--1-----1------|
E|---------------|
Tap to rate this tab
 
# A B C D E F G H I J K L M N O P Q R S T U V W X Y Z