Neil Young - Tell Me Why tab

Artist: Neil Young
Song: Tell Me Why


 Intro
  H    E E E E E E S S S S S S S S E E E S S E S S E S S
|----------------0-----------------------2-2---2-2---2-2----|
|----------------1---------------0-------3-3---3-3---3-3----|
|----------------0-------0-0h2-2---0-----2-2---2-2---2-2----|
|----------------2-0h2-2-------------2-0-----------0--------|
|----------0-2-3-----------------------------0--------------|
|--------3--------------------------------------------------|


  E E E S S S S S S E S S S S S S E S S S S S S E E Q
|-------0-0-----------------------------------------3----|
|-------1-1-----------------------------------------0----|
|-------2-2-------0-----------------------------0---0----|
|-------2-2-0h2-2---0-0-0-------0-----------0h2-----0----|
|-3-2-0-------------------0h2-2---------0h2--------------|
|---------------------------------3-3-3-----------3------|


 Verse
  E S S E S S E S E S E E S S E S S E S E S E
|-0-0-0-0-0-0-0-0-0-0-0-2-2-2-2-2-2-2-2-2-2-2----|
|-1-1-1-1-1-1-1-1-1-1-1-3-3-3-3-3-3-3-3-3-3-3----|
|-0-0-0-0-0-0-0-0-0-0-0-2-2-2-2-2-2-2-2-2-2-2----|
|-2-2-2-2-2-2-2-2-2-2-2-0-0-0-0-0-0-0-0-0-0-0----|
|-3-3-3-3-3-3-3-3-3-3-3--------------------------|
|------------------------------------------------|


  Q  E  S E S E S S S S E E S S E E S S S S E
|-0--0--0-0-0-0-0-0-0-0-3-3-3-3-0-3-3-3----------|
|-1--1--1-1-1-1-1-1-1-1-3-3-3-3-1-3-3-3----------|
|-0--0--0-0-0-0-0-0-0-0-0-0-0-0-0-0-0-0----------|
|-2--2--2-2-2-2-2-2-2-2-0-0-0-0-2-0-0-0-----0----|
|-0--0--0-3-3-3-3-3-3-3-2-2-2-2-3-2-2-2-0h2------|
|-----------------------3-3-3-3---3-3-3----------|


  E S S E S S E S E S E E S S E S S E S E S E
|-0-0-0-0-0-0-0-0-0-0-0-2-2-2-2-2-2-2-2-2-2-2----|
|-1-1-1-1-1-1-1-1-1-1-1-3-3-3-3-3-3-3-3-3-3-3----|
|-0-0-0-0-0-0-0-0-0-0-0-2-2-2-2-2-2-2-2-2-2-2----|
|-2-2-2-2-2-2-2-2-2-2-2-0-0-0-0-0-0-0-0-0-0-0----|
|-3-3-3-3-3-3-3-3-3-3-3--------------------------|
|------------------------------------------------|


  Q  E  S E S E S S S S E E S S E E S S S S E
|-0--0--0-0-0-0-0-0-0-0-3-3-3-3-0-3-3-3----------|
|-1--1--1-1-1-1-1-1-1-1-3-3-3-3-1-3-3-3----------|
|-0--0--0-0-0-0-0-0-0-0-0-0-0-0-0-0-0-0----------|
|-2--2--2-2-2-2-2-2-2-2-0-0-0-0-2-0-0-0-----0----|
|-0--0--0-3-3-3-3-3-3-3-2-2-2-2-3-2-2-2-0h2------|
|-----------------------3-3-3-3---3-3-3----------|


 Pre Chorus
  Q  E S S Q  E S S E E E E. S E S E.
|-2--2-2-2-0--0-0-0-0-0-0-3--3-0-0-3-----|
|-3--3-3-3-1--1-1-1-3-1-0-3--3-1-1-3-----|
|-2--2-2-2-0--0-0-0-0-0-0-0--0-0-0-0-----|
|-0--0-0-0-2--2-2-2-2-2-2-0--0-2-2-0-----|
|----------3--3-3-3-3-3-3-2--2-3-3-2-----|
|-------------------------3--3-----3-----|


  Q  E S S Q  E S S E E E Q  E E E
|-2--2-2-2-0--0-0-0-0-0-0-3--3-3-3----|
|-3--3-3-3-1--1-1-1-3-1-0-3--3-3-3----|
|-2--2-2-2-0--0-0-0-0-0-0-0--0-0-0----|
|-0--0-0-0-2--2-2-2-2-2-2-0--0-0-0----|
|----------3--3-3-3-3-3-3-2--2-2-2----|
|-------------------------3--3-3-3----|


 Chorus
  E. S E S E S E S S E E. S E S E S E S S E
|-2--2-2-2-2-2-2-2-2-2-3--3-3-3-3-3-3-3-3-3----|
|-3--3-3-3-3-3-3-3-3-3-5--5-5-5-5-5-5-5-5-5----|
|-4--4-4-4-4-4-4-4-4-4-5--5-5-5-5-5-5-5-5-5----|
|-4--4-4-4-4-4-4-4-4-4-5--5-5-5-5-5-5-5-5-5----|
|-2--2-2-2-2-2-2-2-2-2-3--3-3-3-3-3-3-3-3-3----|
|----------------------------------------------|


  Q  E S E S E S S E E S E S E Q  E S E S E E E
|-5--5-5-3-3-3-3-3-3-2-2-2-2-2-0--0-0-0-0-0--------|
|-7--7-7-5-5-5-5-5-5-0-0-0-0-0-0--0-0-0-0-0--------|
|-7--7-7-5-5-5-5-5-5-2-2-2-2-2-0--0-0-0-0-0--------|
|-7--7-7-5-5-5-5-5-5-0-0-0-0-0-2--2-2-2-2-2--------|
|-5--5-5-3-3-3-3-3-3-2-2-2-2-2-2--2-2-2-2-2-0-2----|
|------------------------------0--0-0-0-0-0--------|


 Interlude
  E E S S S S S S S S E E E S S E S S E S S
|---0-----------------------2-2---2-2---2-2----|
|---1---------------0-------3-3---3-3---3-3----|
|---0-------0-0h2-2---0-----2-2---2-2---2-2----|
|---2-0h2-2-------------2-0-----------0--------|
|-3-----------------------------0--------------|
|----------------------------------------------|


  E E E S S S S S S E S S S S S S E S S S S S S E E Q
|-------0-0-----------------------------------------3----|
|-------1-1-----------------------------------------0----|
|-------2-2-------0-----------------------------0---0----|
|-------2-2-0h2-2---0-0-0-------0-----------0h2-----0----|
|-3-2-0-------------------0h2-2---------0h2--------------|
|---------------------------------3-3-3-----------3------|


 Verse
  E S S E S S E S E S E E S S E S S E S E S E
|-0-0-0-0-0-0-0-0-0-0-0-2-2-2-2-2-2-2-2-2-2-2----|
|-1-1-1-1-1-1-1-1-1-1-1-3-3-3-3-3-3-3-3-3-3-3----|
|-0-0-0-0-0-0-0-0-0-0-0-2-2-2-2-2-2-2-2-2-2-2----|
|-2-2-2-2-2-2-2-2-2-2-2-0-0-0-0-0-0-0-0-0-0-0----|
|-3-3-3-3-3-3-3-3-3-3-3--------------------------|
|------------------------------------------------|


  Q  E  S E S E S S S S E E S S E E S S S S E
|-0--0--0-0-0-0-0-0-0-0-3-3-3-3-0-3-3-3----------|
|-1--1--1-1-1-1-1-1-1-1-3-3-3-3-1-3-3-3----------|
|-0--0--0-0-0-0-0-0-0-0-0-0-0-0-0-0-0-0----------|
|-2--2--2-2-2-2-2-2-2-2-0-0-0-0-2-0-0-0-----0----|
|-0--0--0-3-3-3-3-3-3-3-2-2-2-2-3-2-2-2-0h2------|
|-----------------------3-3-3-3---3-3-3----------|


  E S S E S S E S E S E E S S E S S E S E S E
|-0-0-0-0-0-0-0-0-0-0-0-2-2-2-2-2-2-2-2-2-2-2----|
|-1-1-1-1-1-1-1-1-1-1-1-3-3-3-3-3-3-3-3-3-3-3----|
|-0-0-0-0-0-0-0-0-0-0-0-2-2-2-2-2-2-2-2-2-2-2----|
|-2-2-2-2-2-2-2-2-2-2-2-0-0-0-0-0-0-0-0-0-0-0----|
|-3-3-3-3-3-3-3-3-3-3-3--------------------------|
|------------------------------------------------|


  Q  E  S E S E S S S S E E S S E E S S S S E
|-0--0--0-0-0-0-0-0-0-0-3-3-3-3-0-3-3-3----------|
|-1--1--1-1-1-1-1-1-1-1-3-3-3-3-1-3-3-3----------|
|-0--0--0-0-0-0-0-0-0-0-0-0-0-0-0-0-0-0----------|
|-2--2--2-2-2-2-2-2-2-2-0-0-0-0-2-0-0-0-----0----|
|-0--0--0-3-3-3-3-3-3-3-2-2-2-2-3-2-2-2-0h2------|
|-----------------------3-3-3-3---3-3-3----------|


 Pre Chorus
  Q  E S S Q  E S S E E E E. S E S E.
|-2--2-2-2-0--0-0-0-0-0-0-3--3-0-0-3-----|
|-3--3-3-3-1--1-1-1-3-1-0-3--3-1-1-3-----|
|-2--2-2-2-0--0-0-0-0-0-0-0--0-0-0-0-----|
|-0--0-0-0-2--2-2-2-2-2-2-0--0-2-2-0-----|
|----------3--3-3-3-3-3-3-2--2-3-3-2-----|
|-------------------------3--3-----3-----|


  Q  E S S Q  E S S E E E Q  E E E
|-2--2-2-2-0--0-0-0-0-0-0-3--3-3-3----|
|-3--3-3-3-1--1-1-1-3-1-0-3--3-3-3----|
|-2--2-2-2-0--0-0-0-0-0-0-0--0-0-0----|
|-0--0-0-0-2--2-2-2-2-2-2-0--0-0-0----|
|----------3--3-3-3-3-3-3-2--2-2-2----|
|-------------------------3--3-3-3----|


 Chorus
  E. S E S E S E S S E E. S E S E S E S S E
|-2--2-2-2-2-2-2-2-2-2-3--3-3-3-3-3-3-3-3-3----|
|-3--3-3-3-3-3-3-3-3-3-5--5-5-5-5-5-5-5-5-5----|
|-4--4-4-4-4-4-4-4-4-4-5--5-5-5-5-5-5-5-5-5----|
|-4--4-4-4-4-4-4-4-4-4-5--5-5-5-5-5-5-5-5-5----|
|-2--2-2-2-2-2-2-2-2-2-3--3-3-3-3-3-3-3-3-3----|
|----------------------------------------------|


  Q  E S E S E S S E E S E S E Q  E S E S E E E
|-5--5-5-3-3-3-3-3-3-2-2-2-2-2-0--0-0-0-0-0--------|
|-7--7-7-5-5-5-5-5-5-0-0-0-0-0-0--0-0-0-0-0--------|
|-7--7-7-5-5-5-5-5-5-2-2-2-2-2-0--0-0-0-0-0--------|
|-7--7-7-5-5-5-5-5-5-0-0-0-0-0-2--2-2-2-2-2--------|
|-5--5-5-3-3-3-3-3-3-2-2-2-2-2-2--2-2-2-2-2-0-2----|
|------------------------------0--0-0-0-0-0--------|


 Ending
  E E S S S S S S S S E E E S S E S S E S S
|---0-----------------------2-2---2-2---2-2----|
|---1---------------0-------3-3---3-3---3-3----|
|---0-------0-0h2-2---0-----2-2---2-2---2-2----|
|---2-0h2-2-------------2-0-----------0--------|
|-3-----------------------------0--------------|
|----------------------------------------------|


  E E E S S S S S S E S S S S S S E S S S S S S E E W
|-------0-0-----------------------------------------3----|
|-------1-1-----------------------------------------0----|
|-------2-2-------0-----------------------------0---0----|
|-------2-2-0h2-2---0-0-0-------0-----------0h2-----0----|
|-3-2-0-------------------0h2-2---------0h2--------------|
|---------------------------------3-3-3-----------3------|


www.guitarstars.biz
Tap to rate this tab
 
# A B C D E F G H I J K L M N O P Q R S T U V W X Y Z