Song name
# A B C D E F G H I J K L M N O P Q R S T U V W X Y Z

Neil Young - The Needle And The Damage Done tab

Intro/gaps:

||----2---0-----------|------0-------------|-----0------------|------0-------------|
||--------------3---3-|---3----------3---3-|--3---------3---3-|---3--------3--3----|
||------2---------2---|-----2----------2---|----0---------0---|-----0--------0-----|
||--0-----------------|--------------------|-------------------|-------------------|
||--------------------|--3-----------------|-2-----------------|-1-----------------|
||--------------------|--------------------|-------------------|-------------------|

|------------------|---------------|--------------|-----------------|
|--1---1---1-----1-|---1--1--1--1-|---0--0--0--0-|--0--0---0---0----|
|---------0---0h2--|--3--2--0-----|--2--------2--|-1----------------|
|----0h2-----------|-----------3--|-----2---------|---2-------------|
|-3----------------|---------------|--------2-----|-------2---0-----|
|------------------|---------------|--------------|-----------------|

Verses:
||----2---0-----------|------0-------------|-----0------------|------0-------------|
||--------------3---3-|---3----------3---3-|--3---------3---3-|---3--------3--3----|
||------2---------2---|-----2----------2---|----0---------0---|-----0--------0-----|
||--0-----------------|--------------------|-------------------|-------------------|
||--------------------|--3-----------------|-2-----------------|-1-----------------|
||--------------------|--------------------|-------------------|-------------------|

|--------------------|--------------------|-----------------|----------------------|
|----1---1--1---1----|---1----1---1---1--|---0---0---0---0-|--0----0----0-----0----|
|----0---0--0---0----|---2----2---2---2--|---2---2---2---2-|-----------------------|
|--2---2---2---2-----|--3---3---3---3----|-2---2---2---2---|----0h2--2/4--4\2------|
|--3---3---3---3-----|--3---3---3---3----|-2---2---2---2---|-2---------------------|
|--------------------|--------------------|-----------------|----------------------|

Ending: play intro once
then: play it slowing down

||----2---0-----------|------0-------------|-----0------------|------0-------------|
||--------------3---3-|---3----------3---3-|--3---------3---3-|---3----------------|
||------2---------2---|-----2----------2---|----0---------0---|-----0--------------|
||--0-----------------|--------------------|-------------------|-------------------|
||--------------------|--3-----------------|-2-----------------|-1-----------------|
||--------------------|--------------------|-------------------|-------------------|

good luck :)
Tap to rate this tab
# A B C D E F G H I J K L M N O P Q R S T U V W X Y Z