Song name
# A B C D E F G H I J K L M N O P Q R S T U V W X Y Z

Neil Young - My My Hey Hey Acoustic tab

-------------------------------------------------------------------------------
                             My My, Hey Hey - Neil Young
-------------------------------------------------------------------------------
Tabbed by: Tidelwave21
Email: Tidelwave21@hotmail.com

So this is my first tab, I had looked at the other tabs, and I think this sounds more 
accurate, feel free to correct me if I'm wrong.  The tuning is 2 half steps down, DGCFAD

      Am        G             Fmaj7
d|----0---------3-------------0-0-0--0-0-0--|----0---------3-----------------0-0-0--0-0-0-|
A|----1---------0-------------1-1-1--1-1-1--|----1---------0-----------------1-1-1--1-1-1-|
F|----2---------0-------------2-2-2--2-2-2--|----2---------0-----------------2-2-2--2-2-2-|
C|----2-------0-0-------------3-3-3--3-3-3--|----2-------0-0---0-0h2p0---0---3-3-3--3-3-3-|
G|--0---0-2-3---2-----2-0---0---------------|--0---0-2-3---2-----------3---0--------------|
D|--------------3---------3-----------------|--------------3------------------------------|

Am7 G      Fmaj7
My my, hey hey
Am7      G               Fmaj7
Rock and roll is here to stay
C              Em
It's better to burn out
Am           F
Than to fade away
Am7 G      Fmaj7
My my, hey hey.

d|----0---------3-------------0-0-0--0-0-0--|
A|----1---------0-------------1-1-1--1-1-1--|
F|----2---------0-------------2-2-2--2-2-2--|
C|----2-------0-0-------------3-3-3--3-3-3--|
G|--0---0-2-3---2-0-2-0-----0---------------|
D|--------------3---------3-----------------|

Am7         G                Fmaj7
Out of the blue and into the black
Am7            G                    Fmaj7
They give you this, but you pay for that
C               Em             Am         F
And once you're gone, you can never come back
Am7                    G                 Fmaj7
When you're out of the blue and into the black.

d|----0---------3-------------0-0-0--0-0-0--|----0---------3-----------------0-0-0--0-0-0-|
A|----1---------0-------------1-1-1--1-1-1--|----1---------0-----------------1-1-1--1-1-1-|
F|----2---------0-------------2-2-2--2-2-2--|----2---------0-----------------2-2-2--2-2-2-|
C|----2-------0-0-------------3-3-3--3-3-3--|----2-------0-0-----0h2p0---0---3-3-3--3-3-3-|
G|--0---0-2-3---2-0-2-0-----0---------------|--0---0-2-3---2-----------3---0--------------|
D|--------------3---------3-----------------|--------------3------------------------------|

Harmonica C Em Am F

d|----0---------3-------------0-0-0--0-0-0--|
A|----1---------0-------------1-1-1--1-1-1--|
F|----2---------0-------------2-2-2--2-2-2--|
C|----2-------0-0-------------3-3-3--3-3-3--|
G|--0---0-2-3---2-0-2-0-----0---------------|
D|--------------3---------3-----------------|

Am7         G                 Fmaj7
The king is gone but he's not forgotten
Am7         G                 Fmaj7
This is the story of a johnny rotten
C              Em         Am           Fmaj7
It's better to burn out than it is to rust
Am7         G                 Fmaj7
The king is gone but he's not forgotten.

d|----0---------3-------------0-0-0--0-0-0--|
A|----1---------0-------------1-1-1--1-1-1--|
F|----2---------0-------------2-2-2--2-2-2--|
C|----2-------0-0-------------3-3-3--3-3-3--|
G|--0---0-2-3---2-0-2-0-----0---------------|
D|--------------3---------3-----------------|

Am7 G       Fmaj7
Hey hey, my my
Am7      G              Fmaj7
Rock and roll can never die
C                   Em
There's more to the picture
Am             F
Than meets the eye.
Am7 G       Fmaj7
Hey hey, my my.

Harmonica Am7 G Fmaj7
Am7 G Fmaj7
C Em Am F

Am7 G       Fmaj7
Hey Hey, My My


Chord Chart:
   Am7  Am  Fmaj7  F   G   C  Em
d|-0----0----0-----1---3---0---0-|
A|-1----1----1-----1---0---1---0-|
F|-0----2----2-----2---0---0---0-|
C|-2----2----3-----3---0---2---2-|
G|-0----0----------3---2---3---2-|
D|-----------------1---3-------0-|
Tap to rate this tab
# A B C D E F G H I J K L M N O P Q R S T U V W X Y Z