Song name
# A B C D E F G H I J K L M N O P Q R S T U V W X Y Z

Neil Young - The Losing End tab

-------------------------------------------------------------------------------
                             The Losing End - Neil Young
-------------------------------------------------------------------------------
Tabbed by:  J. Eule     
E-mail:  joeeule@verizon.net

Tuning:  standard

Notes:  While I'm confident this solo is spot on, I'm not certain about the last 
couple of seconds of the solo because Neil's guitar starts to fade and it's harder 
to hear what he's doing, so you can play pretty much whatever you think sounds good.  
Also, Neil uses a fair bit of tremolo on this solo, so you'll have to add some of 
that if you want it to sound just right.


e|-10-----10-----10-----10--10--10--10--10--10-----10------------------------|
B|-10h12--10h12--10h12--12--13--13--12--10--10h12--10------------------------|
G|-----------------------------------------------------12--------------------|
D|---------------------------------------------------------------------------|
A|---------------------------------------------------------------------------|
E|---------------------------------------------------------------------------|

e|-10--10-----10--10--10--10--10--10-----10----------------------------------|
B|-10--10h12--12--13--13--12--10--10h12--10----------------------------------|
G|-------------------------------------------12------------------------------|
D|---------------------------------------------------------------------------|
A|---------------------------------------------------------------------------|
E|---------------------------------------------------------------------------|

e|-5--5---------5---5---5---5--5------5---5---5------------------------------|
B|-5--5h7-----8---7---5-----5--5h7--8---7---5---7--4h5-----------------------|
G|------------------------7--------------------------------------------------|
D|---------------------------------------------------------------------------|
A|---------------------------------------------------------------------------|
E|---------------------------------------------------------------------------|

e|--------3---------------------5-----8----12----12----12--------------------|
B|-3--3h5---5p3---------------5----10---13----13----13----13-----------------|
G|--------------5--5-------5-------------------------------------------------|
D|-------------------5-5h7---------------------------------------------------|
A|---------------------------------------------------------------------------|
E|---------------------------------------------------------------------------|
                                             On your own from here!
e|-7-7-7-7--5-3-3---------------------0--------------------------------------|
B|-8-8-8-8--------3--3h5--3--------------------------------------------------|
G|-7-7-7-7------------------4--0--2/4----4\2p0-------------------------------|
D|---------------------------------------------------------------------------|
A|---------------------------------------------------------------------------|
E|---------------------------------------------------------------------------|
    Ending lick
e|---------------------------------------------------------------------------|
B|---------------------------------------------------------------------------|
G|--4--2--0---0--2--2--2h4--0------------------------------------------------|
D|----------2-----------------2--0-------------------------------------------|
A|---------------------------------------------------------------------------|
E|---------------------------------------------------------------------------|

************************************

| /   slide up
| \   slide down
| h   hammer-on
| p   pull-off
| ~   vibrato
| +   harmonic
| x   Mute note
| b   Bend
| pb  Pre-bend
| br  Bend release
| pbr Pre-bend release
| brb Bend release bend

************************************
Tap to rate this tab
# A B C D E F G H I J K L M N O P Q R S T U V W X Y Z