Song name
# A B C D E F G H I J K L M N O P Q R S T U V W X Y Z

Neil Young - Powderfinger tab

(/) Slide Up  (\) Slide Down  (h) Hammer On  (p) Pull Off  (b) Bend (r) Release (v) Vibrato


Solo 1
E|--------------------------------------------------------------------------------|
B|--------8--8--10b12--12--12b10--8-----8--8--10--10b12--12b10--10----------------|
G|--7--9-----------------------------7------------------------------7--7--9-------|
D|---------------------------------------------------------------------------7h9--|
A|--------------------------------------------------------------------------------|
E|--------------------------------------------------------------------------------|



E|------------------------------------------------------------------10h12p10h12p10-----|
B|--8--10--10b12--12b10--8--10--8--10--10b12b10--8--10--12--12--12---------------------|
G|-------------------------------------------------------------------------------------|
D|-------------------------------------------------------------------------------------|
A|-------------------------------------------------------------------------------------|
E|-------------------------------------------------------------------------------------|



E|--12--14--15--14--15--14--14--------------15p14------14--14--12----------------------|
B|------------------------------15--17--17---------15------15--13----------------------|
G|-----------------------------------------------------------------11--11--11\9--7-----|
D|----------------------------------------------------------------------------------9--|
A|-------------------------------------------------------------------------------------|
E|-------------------------------------------------------------------------------------|



E|----------------------------------------------------------------------------------------|
B|-----------8--10--10b12--12b10--12b13b12--12b13b12--12--10--10--12--10--10--10--12--10--|
G|--7--7--9-------------------------------------------------------------------------------|
D|----------------------------------------------------------------------------------------|
A|----------------------------------------------------------------------------------------|
E|----------------------------------------------------------------------------------------|



E|-------------------------------------|
B|--7----7--7--7--7--5--3--0--5--3--0--|
G|--7----7--7--7--7--5--4--0--5--4--0--|
D|-------------------------------------|
A|-------------------------------------|
E|-------------------------------------|







SOLO 2
E|----------------------------------------------------------------------------------|
B|--12h15p12--15--15/17--15--12--12--15--15--17-------------------------------------|
G|-----------------------------------------------14h16p14--12h14p12--9--12----------|
D|--------------------------------------------------------------------------10--12--|
A|----------------------------------------------------------------------------------|
E|----------------------------------------------------------------------------------|



E|----------------------------------------------------------------------------------|
B|--12--12--12h13p12--12-------------------------12--12h13--12----------------------|
G|------------------------12------------------------------------14--12----------12--|
D|----------------------------12--12--14/16--14-------------------------12--14------|
A|----------------------------------------------------------------------------------|
E|----------------------------------------------------------------------------------|



E|-----------------------------------------12------------------14--15--14--14--12h14--|
B|-------------------------------------15------12--12--15--15-------------------------|
G|--12--14--12--14/16--------------12-------------------------------------------------|
D|---------------------12------12-----------------------------------------------------|
A|-------------------------14---------------------------------------------------------|
E|------------------------------------------------------------------------------------|



E|--12--14--12--14h15p14--12--14--12--14--12--15--14--12--------------------------|
B|--------------------------------------------------------15----------------------|
G|------------------------------------------------------------11--11--11\9--7-----|
D|-----------------------------------------------------------------------------9--|
A|--------------------------------------------------------------------------------|
E|--------------------------------------------------------------------------------|



E|----------------------------------------------------------------------------------|
B|----------------------------------------------------7--7--7--7--5--3--0--5--3--0--|
G|--7--7--9--9--7--7-----------7h9--11--11--11--9--7--7--7--7--7--5--4--0--5--4--0--|
D|--------------------9--7--9-------------------------------------------------------|
A|----------------------------------------------------------------------------------|
E|----------------------------------------------------------------------------------|

There you go guys, It's fairly close.  There are some chords near the end of the second 
solo that I replaced with single notes as I couldn't pin them down.  Enjoy.
Tap to rate this tab
# A B C D E F G H I J K L M N O P Q R S T U V W X Y Z