Song name
# A B C D E F G H I J K L M N O P Q R S T U V W X Y Z

Neil Young - Fontainebleau tab

Stills/Young Band
Fontainebleau

(/) Slide Up  (\) Slide Down  (h) Hammer On  (p) Pull Off  (b) Bend (r) Release (v) 
Vibrato (()) Harmonic

Intro Solo

E|----------------------------------------------------------------------|
B|----------------------------------------------------------------------|
G|-------------------------------------------------------7--9--9--7--9--|
D|-------------5--7p5--------------5-----7p5-----5--7/9-----------------|
A|--5h7--7--7----------5--7--7--7-----7-------7-------------------------|
E|----------------------------------------------------------------------|



E|---------------------------------------------------------------------------|
B|-8--8p7--------------------------------------------------------------------|
G|----------7--(9)-----------------------------------------------------------|
D|----------------9--7-----5h7--5h7--7/9\7--5--5/7--7--5-----7--5--5---------|
A|----------------------7---------------------------------7-----------7--5---|
E|-------------------------------------------------------------------------7-|


Pretty sure the harmonic on the G string isn't totally accurate, add lots of vibrato 
throughout and some pinch
harmonics near the end and you'll have it.  Enjoy
Tap to rate this tab
# A B C D E F G H I J K L M N O P Q R S T U V W X Y Z