Song name
# A B C D E F G H I J K L M N O P Q R S T U V W X Y Z

Neil Young - Pardon My Heart tab

Pardon My Heart
Neil Young (From the album 'Zuma'(1975

Tabbed by:James McKinnon

Tuning: CGCFAC (Dropped D tuning [DADGBD] taken down a whole step (2 frets).

(Note: Because Neil's playing style is a loose combination of strumming and
picking, I have just tabbed the basic chord formations with some single notes
that stand out in the playing. Have a listen to the record. You'll know what 
to do.)


Intro and verses:


 Time: Loose 2/4: 

It's a

c|-----2-----2-------------2------------------0-----------3----------0--|
A|-----3-----3-------------3------------0-----1-----------0----------3--|
F|-----2-----2-------------2---------2--------0-----------0----------0--|
C|--0----------------0h2----------------------2-----------0----------0--|
G|-----------------------------------------3--------------5-----0h2-----|
C|--------0--------------------------------------------5----------------|
   fallen          situation                   when all  eyes are turned
  

c|-----2----------0-----------0----|
A|-----3----------3-----------1----|
F|-----2----------0-----------0----|
C|-----0----------0--0--------2----|
G|-------------2-----------3-------|
C|--0------------------------------|
    in


Chorus:    

c|----5-------------5---5---5---------7----7---7------7---|
A|----5-------------5---5---5---------7----7---7------7---|
F|----5-------------5---5---5---------7----7---7------7---|
C|----5-------------5---5---5---------7----7---7------7---|
G|----7-------------7---7---7---------5----5---5------5---|
C|----7-------------7---7---7---------0----0---0------0---|
(You brought it all on)       but it  feels so  wrong.


c|----5-------------5---5---5-------------7----7----7-----7--|
A|----5-------------5---5---5-------------7----7----7-----7--|
F|----5-------------5---5---5-------------7----7----7-----7--|
C|----5-------------5---5---5-------------7----7----7-----7--|
G|----7-------------7---7---7-------------5----5----5-----5--|
C|----7-------------7---7---7-------------0----0----0-----0--|
(You brought it all on) No, no I don't believe this song.

c|----5-------------5---5---5----------|
A|----5-------------5---5---5----------|
F|----5-------------5---5---5----------|
C|----5-------------5---5---5----------|
G|----7-------------7---7---7----------|
C|----7-------------7---7---7----------|
(You brought it all on) 



Instrumental bit:

c|----5----5----7----8----7----5----3----3h5----|
A|----7----7----8----8----8----7----5----5h7----|
F|----7----7----7----7----7----7----5----5h7----|
C|----7----7----7----0----0----7----5----5h7----|
G|----0----0----0----0----0----0----0----0------|
C|----X----X----X----X----X----X----X----X------|

c|----7----0----|
A|----8----1----|
F|----7----0----|
C|----0----2----|
G|----0----3----|
C|----X----X----|

And that's about it. 

Additional verses:

It's a sad communication
With little reason to believe
When one isn't giving
And one pretends to receive.

Pardon my heart
If I showed that I cared
But I love you more than moments
We have or have not shared

(Chorus variation on last verse)

(You brought it all on) And it feels so good
(You brought it all on) When love flows the 
way that it should. 




| /  slide up
| \  slide down
| h  hammer-on
| p  pull-off
| ~  vibrato
| +  harmonic
| x  Mute note
===============================================================================
Tap to rate this tab
# A B C D E F G H I J K L M N O P Q R S T U V W X Y Z