Song name
# A B C D E F G H I J K L M N O P Q R S T U V W X Y Z

Neil Young - Slip Away tab

-------------------------------------------------------------------------------
                             SLIP AWAY - Neil Young
-------------------------------------------------------------------------------
Tabbed by: George Juggles


Tuning: Standard (EADGBe)


Comment and Rate! Post corrections if there are any mistakes. Hope you enjoy the tab.


Intro: Listen to the song for the strumming pattern.

   Dadd9        Dsus4add9
e|---0--------------0--------------------------|
B|--10-------------10-----------Play 4 times---|
G|--11--------------0--------------------------|
D|---0--------------0--------------------------|
A|---------------------------------------------|
E|---------------------------------------------|

    Am       Em        E    Am     G    Dm     F               Am     Em
e|---------------------------------3-----1-----1-----------------------------|
B|---1---1-0-----------------1-----0-----3-----1---1-1-0-------1-1-0---------|
G|---2--------0---0h1--1-----2-----0-----2-----2---------2-----------2-------|
D|---2--------2--------2-----2-----0-----0-----3-----------------------1h2---|
A|---0--------2--------2-----0-----2-----------------------------------------|
E|------------0--------0-----------3-----------------------------------------|

     E           Am        G                     Dm     F
e|-----------------------------------------------1-1--------1---0------------|
B|--------------0-1--------0-1-3---1-0---0-1-0------------0-------3-1-----0-1|
G|----0h1---1-2--------------------------------2--------2-------------2------|
D|--2------------------------------------------------------------------------|
A|---------------------------------------------------------------------------|
E|---------------------------------------------------------------------------|

   Csus4    Gsus4                     Dsus4
e|---0--------3-------------------------3---3-3---3---3-3-3------------------|
B|---1--------1------Play 4 times-------3---3-3---3---3-3-3----Play 2 times--|
G|---0--------0-------------------------0h2-2-2---0h2-2-2-2------------------|
D|---3--------0-------------------------0---0-0---0---0-0-0------------------|
A|---3--------x--------------------------------------------------------------|
E|------------3--------------------------------------------------------------|

   Dadd9        Dsus4add9
e|---0--------------0--------------------------|
B|--10-------------10-----------Play 4 times---|
G|--11--------------0--------------------------|
D|---0--------------0--------------------------|
A|---------------------------------------------|
E|---------------------------------------------|

Verse:

Am                  Em
   She lives in the TV sky
E                     Am
   She lives in such pain
G                  Dm
   She rides in a bullet proof
F
   Stretch limosine


The smoke in the bar room nights
The faces in the window
The sound of the harbor horn
She recognized

Chorus:

Csus4
   And when the music started
   Gsus4
   She just slipped away
Csus4                           Gsus4
   Just like a river fallin down
Csus4
   And when the music started
   Gsus4
   She just slipped away
 Dsus4
   She just slipped away

High on a windy hill
The turbine did whine
Low in the valley chill
A baby is cryin

Impossible to take the time
The moment is near
Cry out from behind the pines
A voice coming near

Post Chorus:

   Dadd9        Dsus4add9
e|---0--------------0--------------------------|
B|--10-------------10-----------Play 4 times---|
G|--11--------------0--------------------------|
D|---0--------------0--------------------------|
A|---------------------------------------------|
E|---------------------------------------------|

Solo at about 4:20: Rhythm guitar plays the chords for the verse two times.

e|---0-----------------------------------------------------------------------|
B|------3--1-0-----0----0-0-1-33/5-----3-3-1-0----- 0-1-----1-1-0-----------|
G|----------------------------------------------2------------------0-1-2-----|
D|---------------------------------------------------------------------------|
A|---------------------------------------------------------------------------|
E|---------------------------------------------------------------------------|

e|---------------------------------------------------------------------------|
B|---1-1-0---------------------------------0-0-1-3--3-------1-1-0------------|
G|---------2-0-----------0h1-1-1/2/4/5--------------0h2-----------0-1/2------|
D|-------------2-2-----2----------------------------0------------------------|
A|---------------------------------------------------------------------------|
E|---------------------------------------------------------------------------|

Solo at about 5:25: Rhythm guitar plays a D chord.

e|---5---5---1/2-------2-----2-/5-/7-/9---5\2---5\2---2-----22/3---2-0--2-5-|
B|---------------------------------------------------------------------------|
G|---------------------------------------------------------------------------|
D|---------------------------------------------------------------------------|
A|---------------------------------------------------------------------------|
E|---------------------------------------------------------------------------|

e|---5/7--5-0-2----2----2/3~~~\2-0-------0-2-----0-2-5---0-2-5---0-2-5-------|
B|-----------------------------------0---------------------------------------|
G|---------------------------------------------------------------------------|
D|---------------------------------------------------------------------------|
A|---------------------------------------------------------------------------|
E|---------------------------------------------------------------------------|

e|---2-3-0--2-------0-2-------------------------------------------2--3-5-----|
B|------------3---------3----------------------------------------------------|
G|--------------------------0---2-----7------7------7------7-----------------|
D|------------------------------------7------7------7------7-----------------|
A|------------------------------------5------5------5------5-----------------|
E|---------------------------------------------------------------------------|

e|---2-3-5---5/7---5---5-3-2-----2-3-5---2-2---------------------------------|
B|-----------------------------------------------0-1-3-----------------------|
G|-------------------------------------------------------0h2-----2-0-----0-2-|
D|-------------------------------------------------------------------3-------|
A|---------------------------------------------------------------------------|
E|---------------------------------------------------------------------------|

e|---------------------------------------------------------------------------|
B|---------------------------------------1-3-------------------------------0-|
G|---2-0-----0-2-----------------------------0-2-----2-4-0-----0-2-----0-2---|
D|-------3-------3-2-------------2-------------------------4-----------------|
A|-------------------3---3---3-----5-----------------------------------------|
E|---------------------------------------------------------------------------|

e|--------------------------------5-5-5-5-5/7---5-3-2-----5-5-5h7p5--2-5-2---|
B|---------------------------------------------------------------------------|
G|---0-----0-2---2-0---------------------------------------------------------|
D|-----4-------------4-0-----------------------------------------------------|
A|---------------------------------------------------------------------------|
E|---------------------------------------------------------------------------|

e|---2-0----5-----5-3-2-0-5-------2-2h5p2h5p2h5p2h5-7-5-3-2-----5-5-5---7-5-3|
B|-------3----------------------3--------------------------------------------|
G|---------------------------------------------------------------------------|
D|---------------------------------------------------------------------------|
A|---------------------------------------------------------------------------|
E|---------------------------------------------------------------------------|

e|---2---2--0---------------5--------14----14--0-----------------------------|
B|-------------3--3-------------------------------15-------------------------|
G|-------------------------------------------------------14-14/16--14--14-12-|
D|---------------------------------------------------------------------------|
A|---------------------------------------------------------------------------|
E|---------------------------------------------------------------------------|

e|---------------------------------------------------------------------------------|
B|----------------------------0-3-1------------------------------------------------|
G|---11---11-9-----0--0h2-------------0--0h2---------------------------------------|
D|---------------------------------------------------------------------------------|
A|---------------------------------------------------------------------------------|
E|---------------------------------------------------------------------------------|




Order of parts:

Intro
Verse
Chorus
Verse
Chorus
Solo 1
Chorus
Solo 2


************************************

| /   slide up
| \   slide down
| h   hammer-on
| p   pull-off
| ~   vibrato
| +   harmonic
| x   Mute note
| b   Bend
| pb  Pre-bend
| br  Bend release
| pbr Pre-bend release
| brb Bend release bend

************************************
Tap to rate this tab
# A B C D E F G H I J K L M N O P Q R S T U V W X Y Z