Song name
# A B C D E F G H I J K L M N O P Q R S T U V W X Y Z

Neil Young - Welfare Mothers tab

This is my version if you know it a different way PM me. if you want to build on it 
do. hopefully we will get it right eventually.


Standard tuning and Your going to want to use a pretty heavy distortion/ fuzz pedal on this.


----------------------------------------------------------------------------|
----------------------------------------------------------------------------|
----------------------------------------------------------------------------|
----7-s-9---7-s-9----7-s-9----------------5---------------------------------|
----5-s-7---5-s-7----5-s-7---------5--7-------7----5------------------------|
----5-s-7---5-s-7----5-s-7---5h7-------------------------7----5---5---7-----|


-------------------------------------------------------------------------|
-------------------------------------------------------------------------|
-------------------------------------------------------------------------|
-------------------5-----------------------------------------------------|
---------5---7-----------7-----5---------------------7-------------------|
---5h7------------------------------7-----5-----5------------------------|
Tap to rate this tab
# A B C D E F G H I J K L M N O P Q R S T U V W X Y Z