Guitaretab - guitar tabs
Song name
# A B C D E F G H I J K L M N O P Q R S T U V W X Y Z

Neil Young - Dead Man tab

Hey I noticed that the only version of the solo on here is too complicated and pretty 
its actually pretty easy. Listen to the song for timing. Play your electric overdrive and 
and if possible. It's my first tab so corrections welcome.


e--------------------------------------------------------------------2----------|
B--------------------------------------------------------------------3----------|
G--------------------------------------------------------------------4----------|
D-------------------------------------------------------------------------------|
A-0-0-2-5-2----------0-0-2-5-2-------0-0-2-5-2-------4-2------------------------|
E---------------------------------------------------------2---------------------|


e------2---------------------2---0--------2-2------------2--------------------|
B--3-5---5-3-0-----5s7---0-----------3---------------3-5---3-2b--2s3-3s5------|
G--------------------------------------2--------------------------------------|
D-----------------------------------------------------------------------------|
A-----------------------------------------------------------------------------|
E-----------------------------------------------------------------------------|


e-2-------------2--------------------------------------------------------------|
B---5-3-5-3-------3-----5-3-2---5-3-1-0(ring)----------------------------------|
G-----------4-------3----------------------------------------------------------|
D------------------------------------------------------------------------------|
A---------------------------------------------------0-0-2-5-2------5-4-0-2-5-2-|
E------------------------------------------------------------------------------|
[ Tab from: http://www.guitaretab.com/n/neil-young/57969.html ]
e---------------------------2-----------2-----------------0h2--0--------2-0-----|
B---------------------------3-------3-5---5-3-0--5s7-0-----------3--------------|
G---------------------------4--------------------------------------0-2----------|
D-------------------------------------------------------------------------------|
A--0-0-2-5-2---4----------------------------------------------------------------|
E----------------5--2-----------------------------------------------------------|


e-0h2-0---------------0-2-----------------0----------------------0-------------|
B-------3-2--2s3-3s5------5-3-5-3-------2------5-3-------3s5-5---5-------------|
G---------------------------------4---3------------2---1---------0-------------|
D------------------------------------------------------------------------------|
A------------------------------------------------------------------------------|
E------------------------------------------------------------------------------|


e-----------------------------------------------------------------------------|
B-----------------------------------------------------------------------------|
G-----------------------------------------------------------------------------|
D--------------------------------0h2-2-4--------------------------------------|
A-0-0-2-5-2------5--2-5-2----2-5---------5-2-----------5--0---0h2-------------|
E-----------------------------------------------------------------------------|


e------------------------------------------------------------------------------|
B------------------------------------------------------------------------------|
G------------------------------------------------------------------------------|
D------4-------4--------4--------2-4----2-4----2-4-----------------------------|
A--0--2-----0-2-----0-2-------------2------2------2----2--2--2--2-2-2(Fade)----|
E------------------------------------------------------------------------------|
Related for Dead Man tab
Dead Man chords by Neil Young