Song name
# A B C D E F G H I J K L M N O P Q R S T U V W X Y Z

Neil Young - Carmichael tab

-----------------------------------
Band: Neil Young
Song: Carmichael
Album: Greendale
Tabber-Edwardthegreat5
Notes- Play these two chords over and over...insert riff in the right spots...just solo 
too hard.
------------------------------------

-0---3----------------------------------------------------------------------|
-0---0----------------------------------------------------------------------|
-2---0-------------------0--------------------------------------------------|
-2---0---------------2-4------------2-4-0-----------------------------------|
-0---2------0---3-4---------0---3-4-----------------------------------------|
-0---3----------------------------------------------------------------------|
Tap to rate this tab
# A B C D E F G H I J K L M N O P Q R S T U V W X Y Z