Song name
# A B C D E F G H I J K L M N O P Q R S T U V W X Y Z

Neil Young - Roger And Out tab

Help us improve GuitareTab! Take a short survey!
----------------------------------------------------------------------------
			     ROGER AND OUT - Neil Young
----------------------------------------------------------------------------
Tabbed by: slash_angus_vh
Email: brillonha@yahoo.ca

Tuning: standard
Capo: 6th fret

Verse:
     trippin'........highway
e|----6---6-----9---9-------7---7---7---7-------------------------------|
B|----7---7-----9---9-------7---7---7---7-------------------------------|
G|----6---6-----6---6-7h8-8---8---8---8---------------------------------|
D|6h8---8-------6---6-7h9-9---9---9---9---------------------------------|
A|6h9---9---6h8---8---7h9-9---9---9---9---------------------------------|
E|----------6h9---9---7---7---7---7---7---------------------------------|

it's the same until the solo

Solo/bridge:
e|9-9------------------------6-------9---------8-----9-----------------------|
B|9-9--------6---------------7-------9-------7---7---9-----------------------|
G|6-6--6-6h8----6h8-6--------6-------6-----8-------8-6-----------------------|
D|6-6-----------------9--6h8-8-------6---------------6-----------------------|
A|8-8--------------------6h9-9---6h8-8---------------8-----------------------|
E|9-9----------------------------6h9-9---------------9-----------------------|

then it goes back to the verse chords for the rest.  listen to the song for timing

| /  slide up
| \  slide down
| h  hammer-on
| p  pull-off
| ~  vibrato
| +  harmonic
| x  Mute note
============================================================================
Related for Roger And Out tab