Song name
# A B C D E F G H I J K L M N O P Q R S T U V W X Y Z

Neil Young - Shock Awe tab

Highlighted       Show chord diagrams
SHOCK AND AWE - Neil Young (from Living With War - 2006)

chords by Derwood

I can't believe that this isn't tabbed anywhere yet. It's only the best song on
the album! Sometimes, you just have to do things yourself.

This is in standard tuning. I've written it out in standard chords, though I know that
Neil uses alternate chord forms. Either way, it sounds fine this way.

CHORDS:

E - 022100
F# - 244322
G - 355433
A - x02220
Bm - x24432
D - xx0232

INTRO
-----

Bm  F#  Bm  G

Bm  A  Bm

D  A  Bm

Bm  D  E  G

Bm  A  G  F#


VERSE
-----

Bm           A                Bm
  Back in the days of Shock and Awe

D            A             Bm
  We came to liberate them all

Bm              D              E          G
  History was a cruel judge of overconfidence

Bm            A                 G         F#
  Back in the days of Shock and Awe


Repeat for all verses


INSTRUMENTAL BREAK
------------------

Same as Intro:

Bm  F#  Bm  G

Bm  A  Bm

D  A  Bm

Bm  D  E  G

Bm  A  G  F#


TRUMPET SOLO
------------

Starts on the second line of the Intro (Bm  A  Bm)
Listen to song for timing


  Bm          A           Bm
E|------------------------------------------------------------|
B|------------------------------------------------------------|
G|------------------------------------------------------------|
D|---4--4--4--2--0--------------------------------------------|
A|------------------4--0--2-----------------------------------|
E|------------------------------------------------------------|

  D           A           Bm
E|------------------------------------------------------------|
B|------------------------------------------------------------|
G|------------2--0--------------------------------------------|
D|---4--4--4--------4--2--4-----------------------------------|
A|------------------------------------------------------------|
E|------------------------------------------------------------|

  Bm          D     E           G
E|------------------------------------------------------------|
B|------------------------------------------------------------|
G|---4--4--4--2-----------------------------------------------|
D|---------------4--2--4--2--0--------------------------------|
A|------------------------------2-----------------------------|
E|------------------------------------------------------------|

  Bm          A           G     F#
E|------------------------------------------------------------|
B|------------------------------------------------------------|
G|------------------------------------------------------------|
D|---4--4--4--2--0--------------------------------------------|
A|------------------4--0--2-----------------------------------|
E|------------------------------------------------------------|
Tap to rate this tab
 
# A B C D E F G H I J K L M N O P Q R S T U V W X Y Z