Song name
# A B C D E F G H I J K L M N O P Q R S T U V W X Y Z

Neil Young - Double E tab

Double E by Neil Young
(standard tuning)

b- bend 
r- release
/- slide
                                                 
|---------------------|--------------------------2-----------------|
|---------------------|--------------------------3-----------------|
|---------------------|-----2-4/6------2-4/5-4-2-2-----------------|
|-2--2-4--2-5--2-4--2-|-2-4--------2-4-----------0-----------------|
|-0--0-0--0-0--0-0--0-|----------------------------3-3-3-3-5-5-7-5-|
|---------------------|----------------------------1-1-1-1-3-3-3-3-|

 
|-3--2----------------------|-3--2---------------------------------|
|-3--3----------------------|-3--3--13-13--15b(17)-(17)r-15-13--13-|
|-0--2----------------------|-0--2--14-14---------------------14---|
|-0--0--2--2-4--2-5--2-4--2-|-0--0---------------------------------|
|-2-----0--0-0--0-0--0-0--0-|-2------------------------------------|
|-3-------------------------|-3------------------------------------|
 3 times
Tap to rate this tab
 
# A B C D E F G H I J K L M N O P Q R S T U V W X Y Z