Song name
# A B C D E F G H I J K L M N O P Q R S T U V W X Y Z

Neil Zaza - Something Anything tab

I just figured this out i hope it helps.

 Lead Neil zaza
e|---------------------------------17~--------17~-----------|
b|------------------14-15----14-15-----14h15----------------|
g|---16~~~~~~-------------16--------------------------------|
d|---------------16-----------------------------------------|
a|-------------14-------------------------------------------|
e|-19~~-----------------------------------------------------|

 This is after the heavey rhythem part..
e|--------------------------|
b|--------------------------|
g|-4-6br(7)-4---------------| after that he just plays around in C i think
d|------------7-4-2-0/2/4---|  
a|--------------------------|
e|--------------------------|

key.
~ virbito
b bend
br bend to fret in ( ) then release
h hammer on


this is one of my favorite zaza songs, i will maybe post some more up. have fun learning this.
Tap to rate this tab
# A B C D E F G H I J K L M N O P Q R S T U V W X Y Z