Song name
# A B C D E F G H I J K L M N O P Q R S T U V W X Y Z

Neil Zaza - Tobaber tab

Artist: Neil Zaza
Song: Tobaber
Album: 2 Hands 1 Heart
Transcription made by: Nick Tribbiani (youtube.com/xnikoTRAGEDY)
Key: D major
Tuning: EADGBe


e|-----------------------------------------------------------------------|
B|---/3/5/7--7(br)8p5---7(b)8p7p5---------2--3-------2---3-----2--3---2--|
G|-----------------------------------------4----------2----------4-------|           x2
D|-----------------------------------------------------------------------|
A|-----------------------------------------------------------------------|
E|-----------------------------------------------------------------------|


e|---------------------------------------------------|
B|---------------------------------------------------|
G|--/7/6/4----7/9/11p9/7--/12/11/9/7/6p7-------------|
D|-----------------------------------------------7---|
A|---------------------------------------------------|
E|---------------------------------------------------|

|----------------------------------------------|
|------------------------------------------9---|
|--7/9/11--11(br)12p9---11(b)12--11------------|
|----------------------------------------------|
|----------------------------------------------|
|----------------------------------------------|

e|------------------------------------------|--/14-17-14---12p10h12~---12---10p9h10--|
B|------------------------------------------|----------------------------------------|
G|-------6--7------6--7------6--7--6~---|--------------------------------------------|
D|---9----------7---------9---------------|------------------------------------------|
A|------------------------------------------|----------------------------------------|
E|------------------------------------------|----------------------------------------|

e|---10--9p7h9(b)10~--9---7p5h7---7--5p3h5------------|
B|----------------------------------------------------|
G|----------------------------------------------------|
D|----------------------------------------------------|
A|----------------------------------------------------|
E|----------------------------------------------------|

|--/12----/14---/15----/14---/15--/17---------|
|---------------------------------------------|
|--/12---/14---/16-----/14---/16--/18---------|
|---------------------------------------------|
|---------------------------------------------|
|---------------------------------------------|


e|-----/15---/17---/19---/14---/12---/10---/9---------|
B|----------------------------------------------------|
G|----/16---/18---/19---/14---/12---/10---/9----------|
D|----------------------------------------------------|
A|----------------------------------------------------|
E|----------------------------------------------------|

|------------------------------------------------------------|
|---10---10---8-7----------------------8~--7(b)8-------------|
|---------------------9(b)11p7-----7----------------7/9------|
|------------------------------------------------------------|
|------------------------------------------------------------|
|------------------------------------------------------------|

e|------------------------------------------|
B|--10~---12~--14~--14(b)15--12~------------|
G|------------------------------------------|
D|------------------------------------------|
A|------------------------------------------|
E|------------------------------------------|

|------------------------------------------------------|
|-----------7h8p7------------7h8p7---------------------|
|-------7-----------------7-------------7~---9~--------|
|---7-----------------7--------------------------------|
|------------------------------------------------------|
|------------------------------------------------------|

Watch this tab played here www.youtube.com/xnikoTRAGEDY
Tap to rate this tab
 
# A B C D E F G H I J K L M N O P Q R S T U V W X Y Z