Song name
# A B C D E F G H I J K L M N O P Q R S T U V W X Y Z

Nekromantix - Love At First Bite tab

 Love At First Bite- Nekromantix
-------------------------------------------------------------------------------
Tabbed by:xSecretKillerx
Email:bpharris3@yahoo.com

Tuning: Standard
Intro/Verse: Delay
e|-----------------------------------------------------------------------------|
B|-6-5(x4)---------------------------------------------------------------------|
G|7----------------------------------------------------------------------------|
D|-----------------------------------------------------------------------------|
A|-----------------------------------------------------------------------------|
E|-----------------------------------------------------------------------------|
Overdrive
e|---------------------------------------------------------------------------------|
B|-5-6-8-6-5-----------------------------------------------------------------------|
G|7------------6------------------5------------------------------------------------|
D|----------------7-5-7-7-7-7-7---7(x4)--------------------------------------------|
A|---------------------------------------------------------------------------------|
E|---------------------------------------------------------------------------------|
Repeat Once
Chorus
e|-----------------------------------------------------------------------------|
B|-----------------------------------------------------------------------------|
G|-----------------------------------------------------------------------------|
D|7-8-7-5---5(x2) Repeat x2----------------------------------------------------|
A|----------8------------------------------------------------------------------|
E|-----------------------------------------------------------------------------|
I improved on the solo with heavy distortion then you go back to the 1st part of the intro
and thats pretty much it. Hope this helps

| /  slide up
| \  slide down
| h  hammer-on
| p  pull-off
| ~  vibrato
| +  harmonic
| x  Mute note
===============================================================
Tap to rate this tab
 
# A B C D E F G H I J K L M N O P Q R S T U V W X Y Z